Cifra Club

Bagagedrager

Spinvis

Cifra: Principal (violão e guitarra)
Selo Cifra Club: esta cifra foi revisada para atender aos critérios oficiais da nossa Equipe de Qualidade.
tom: A
F#m     = 244222
Dmaj7   = x57675
Bm7     = x24232 or 797777
D       = xx0232
A       = x02220
E6/F#   = 222424

From the begining guitar 1 always chord F#m

E|-2----------|
B|-2----------|
G|-2----------|
D|-4 ---------|
A|-4----------|
E|-2----------|


Bass

G|----------------|----------------|----------------|----------------|
D|----------------|----------------|----------------|---------------2| repeat
A|----------------| 5-5----55-5-----|2-2----22-2-----|5-5----4------4-|
E|2-2----22-2-----|----------------|----------------|--------5-5-----|


Chords : F#m - D  - Bm7 - D - A ( you can ev. use them from the beginning )

or       F#m - Dmaj7 - Bm7 - D - A


[Verse 1]

F#m
Je droomt wel vaker van een feest
     D
maar hier ben je nog nooit geweest
Bm7
iedereen kijkt naar voetbal
      D                  A
en een vent zeurt aan je kop

    F#m
Wat wil die man in hemelsnaam
    D 
hoe kom je hier
                 Bm7
hoe kom je hier vandaan

en als je wegkomt
   D                     A
waarheen wou je dan wel gaan

  F#m
Hij praat maar door maar jij dwaalt af
       D
dus je weet niet wie de wedstrijd wint
      Bm7
als je luistert naar de wolken
      D                  A
als je luistert naar de wind

  F#m
Je agenda en je zonnebril
  D
wat doen die hier nou
                           Bm7
maar je ligt weer in je eigen bed

in je eigen lot
    D                  A
en opeens staat alles stil


[Instrumental part]


Synthsolo ( on guitar )( 1:57 - 2:19 )


E|--------|--------|--------|------9-|--------|------5-|--------|
B|14------| 14------|14------|--------|--------|--------|--------|
G|----14--|----11--|--------|--7-9---| 9-7-9---|7-6-7---|7-6-----|
D|--------|--------|----14--|--------|--------|--------|--------|
A|--------|--------|--------|--------|--------|--------|--------|
E|--------|--------|--------|--------|--------|--------|--------|



E|9-7-----| 9-------|9-------|9-------|------9-|--------|------5-|--------|
B|--------|--10----|--------|--------|--------|--------|--------|--------|
G|--------|--------|--11----|--9-----|--7-9---| 9-7-9---|7-6-7---|7-6-----|
D|--------|--------|--------|--------|--------|--------|--------|--------|
A|--------|--------|--------|--------|--------|--------|--------|--------|
E|--------|--------|--------|--------|--------|--------|--------|--------|


 [Chorus]

 E6/F#
 een motor draait
 D
 de baby huilt
 Bm7
 een vogel schreeuwt
 D                           x 4
 de dag begint
 A
 en de snelweg suist


 [Instrumental part]


 [Verse 2]

 F#m
 tis altijd wat en altijd spijt
     D
 van al het geld en alle tijd
       Bm7
 op de onverharde wegen
              D           A
 die je naar hier hebben geleid
 
 F#m
 de ochtenden zijn wit en koud
    D
 en hoe je ook je stuur vasthoudt
    Bm7
 de wind komt door je handschoenen heen
    D              A
 je vingers zijn versteend 
    F#m                        D  
 zo is er altijd iets wat je verlamt

 en is het niet de wiet
     Bm7
 dan is het wel de drank of zo
     D                  A
 het spookt maar in je hoofd         
        F#m
 het was lang geleden een eeuwigheid
    D
 je fietste op de afsluitdijk
     Bm7
 ik weet niet wat je er nu van vindt


                         F#m
 als je luistert naar de wolken      
                         Bm7        x 2
 als je luistert naar de wind
Outros vídeos desta música
    11 exibições
      • ½ Tom
      • A
      • Bb
      • B
      • C
      • Db
      • D
      • Eb
      • E
      • F
      • F#
      • G
      • Ab
    • Adicionar à lista

    Afinação da cifra

    Afinador online

      0 comentários

      Ver todos os comentários

      Entre para o Cifra Club PRO

      Tenha acesso a benefícios exclusivos no App e no Site

      • Chega de anúncios

      • Badges exclusivas

      • Mais recursos no app do Afinador

      • Atendimento Prioritário

      • Aumente seu limite de lista

      • Ajude a produzir mais conteúdo

      Cifra Club Pro

      Aproveite o Cifra Club com benefícios exclusivos e sem anúncios
      Cifra Club Pro
      Aproveite o Cifra Club com benefícios exclusivos e sem anúncios
      Ops (: Contenido disponible sólo en portugués.
      OK