Cifra Club

Aprenda

Right Now

Sr-71

Cifra: Principal (violão e guitarra)
tom: C
Tuning: Standard

PM=3DPalm Mute
X=3DPlay the same chord before the X, only with a PM
LR=3DLet Ring

Found this out last week

Intro
|--------------------------------------------|
|--------------------------------------------|
|--------------------------------------------|
|13-X-X-X-X-X-X---------10-X-X-X-X-X-X-------|
|13-X-X-X-X-X-X-10-8-6--10-X-X-X-X-X-X-6-8-10|
|11-X-X-X-X-X-X---------8--X-X-X-X-X-X-------|

|-----------------------------------|(Play twice)
|-----------------------------------|
|-----------------------------------|
|8-X-X-X-X-X-X----------------------|
|8-X-X-X-X-X-X-10-8-6-11-10-8-10-8-6|
|6-X-X-X-X-X-X----------------------|

Verse
|-----------------------------------------------------------------------
|-----------------------------------------------------------------------
|-----------------------------------------------------------------------
|13-X-X-X-X-X-X-X-X-X-X-X--10-X-X-X-X-X-X-X-X-X-X-X--8-X-X-X-X-X-X-X-X-
|13-X-X-X-X-X-X-X-X-X-X-X--10-X-X-X-X-X-X-X-X-X-X-X--8-X-X-X-X-X-X-X-X-
|11-X-X-X-X-X-X-X-X-X-X-X--8--X-X-X-X-X-X-X-X-X-X-X--6-X-X-X-X-X-X-X-X-=
|
"She clings...

|-----------------------|-----------------------------------------------
|-----------------------|-----------------------------------------------
|-----------------------|-----------------------------------------------
|6-X-X-X-X-X-X-X-X-X-X-X|12-13-X-X-X-X-X-X-X-X-X-X--9-10-X-X-X-X-X-X-X-=
|6-X-X-X-X-X-X-X-X-X-X-X|12-13-X-X-X-X-X-X-X-X-X-X--9-10-X-X-X-X-X-X-X-=
|4-X-X-X-X-X-X-X-X-X-X-X|10-11-X-X-X-X-X-X-X-X-X-X--7-8--X-X-X-X-X-X-X-X

"But now ...

|------------------------------------------------|
|------------------------------------------------|
|------------------------------------------------|
|7-8-X-X-X-X-X-X-X-X-X-X--5-6-X-X-X-X-X-X-X-X-X-X|
|7-8-X-X-X-X-X-X-X-X-X-X--5-6-X-X-X-X-X-X-X-X-X-X|
|5-6-X-X-X-X-X-X-X-X-X-X--3-4-X-X-X-X-X-X-X-X-X-X|
"Another thing ...

Chorus
|----------------------------------------------------|(Play three times)
|----------------------------------------------------|
|----------------------------------------------------|
|13-13-13-13-13--8-8-8-8-8--10-10-10-10-10--6-6-6-6-6|
|13-13-13-13-13--8-8-8-8-8--10-10-10-10-10--6-6-6-6-6|
|11-11-11-11-11--6-6-6-6-6--8--8--8--8--8---4-4-4-4-4|
"WHY? Why ...

|-----------------------------------|
|-----------------------------------|
|-----------------------------------|
|8-8-8-8-8-8-8-8---5-6-6-6-6-6-6-6-6|
|8-8-8-8-8-8-8-8---5-6-6-6-6-6-6-6-6|
|6-6-6-6-6-6-6-6---3-4-4-4-4-4-4-4-4|
"She may not be ...



PLAY INTRO ONCE



PLAY VERSE (slightly different than the first verse,
but I think you can figure it out)

|------------------------|
|------------------------|
|------------------------|
|15--15--15--15--15-12-13|
|15--15--15--15--15-12-13|
|13--13--13--13--13-10-11|
LR
"You know ....

PLAY CHORUS 

(SOLO, haven't figured it out yet, but the background guitar
is just the CHROUS, but a little different)

Bridge
|------------|
|------------|
|------------|
|13--8--3--6-|
|13--8--3--6-|
|11--6--1--4-|
LR LR LR LR



PLAY CHORUS



PLAY INTRO ONCE

OUTRO
|--------------------------------------------|
|--------------------------------------------|
|--------------------------------------------|
|13-X-X-X-X-X-X---------10-X-X-X-X-X-X-------|
|13-X-X-X-X-X-X-10-8-6--10-X-X-X-X-X-X-6-8-10|
|11-X-X-X-X-X-X---------8--X-X-X-X-X-X-------|

|-------------------------------|
|-------------------------------|
|-------------------------------|
|8-X-X-X-X-X-X---------9--11--13|
|8-X-X-X-X-X-X-10-8-6--9--11--13|
|6-X-X-X-X-X-X---------7--9---11|
LR LR LR

well thats all for now....


Outra versão
------------

Subject: s/sr-71/right_now.tab



one note   x over a note means it is palm muted.
Intro
-----------------------------------------
-----------------------------------------
-----------------------------------------
-9--x-x-x-x-x-/6-4---6--x-x-x-x-x----4-6-
-7--7-7-7-7-7------7-4--4-4-4-4-4-/7-----
-----------------------------------------

-----------------------------------
-----------------------------------
-----------------------------------
-4--x-x-x-x-x-/6-4---/7-6-4-6-4----
-2--2-2-2-2-2------7------------6--
-----------------------------------

verse riff
-------------------------------------------------
-------------------------------------------------
-9----------------------------6------------------
-9--x-x-x-x-x-x-x-x-x-x-x-x-x-6--x-x-x-x-x-x-x-x-
-7--7-7-7-7-7-7-7-7-7-7-7-7-7-4--4-4-4-4-4-4-4-4-
-------------------------------------------------

--------------------------------------------------
--------------------------------------------------
-----------4-----------------------------2--------
-x-x-x-x-x-4--x-x-x-x-x-x-x-x-x-x-x-x-x--2--------
-4-4-4-4-4-2--2-2-2-2-2-2-2-2-2-2-2-2-2--0--------
--------------------------------------------------

chorus riff 1 (play 3 times)
---------------------------------
---------------------------------
-9-9-9---------------------------
-9-9-9-9-9-9-11-11-11------------
-7-7-7-9-9-9-11-11-11-12-11-9-7--
-------7-7-7--9--9--9------------

chorus riff 2 (play once)
-------------------------------
-------------------------------
-------------------------------
-4--4--4--4-4-4-7--7--7--7-7-7-
-4--4--4--4-4-4-7--7--7--7-7-7-
-2--2--2--2-2-2-5--5--5--5-5-5-

----------------------------
----------------------------
----------------2-----------
-4--------------2-----------
-4--------------0-----------
-2--------------------------
You know...    Such a nice...


Post solo
-----------------------------
-----------------------------
-9----4-----------2-----2----
-9----4-----4-----2-----2----
-7----2-----4-----0-----0----
------------2----------------
                        overdubbed pickscrape

GUITAR SOLO
-4-0-0-5-0-0-7-0-9-0-0-12~~~~--------------
-----------------------------12b^----------
---------------------------------9b^-------
------------------------------------9b^^---
-------------------------------------------
-------------------------------------------

-------------------------------------------
-------------------------------------------
-------6-8-9-9-------------6-8-9-9--6-8-9--
-6-7-9---------6-7-9-6-7-9-----------------
-------------------------------------------
-------------------------------------------

------------12~--------------/12-12-12-12-12-
7-9-10-10-9----10-12b-12-10--/12-12-12-12-12-
---------------------------11----------------
---------------------------------------------
---------------------------------------------
---------------------------------------------

-/12-12-12-12-12--17-12-16-12-14-12-16-12-
-/12-12-12-12-12--------------------------
------------------------------------------
------------------------------------------
------------------------------------------
------------------------------------------

-17-12-16-12-14-12-16-12--17-16-14---------
-----------------------------------17-17B/-
-------------------------------------------
-------------------------------------------
-------------------------------------------
-------------------------------------------

------------------17-16-14-----------------
-19B/\-17-16-17~~----------17-16-14--------
------------------------------------16~~~--
-------------------------------------------
-------------------------------------------
-------------------------------------------

that's it. Pretty simple, any comments or 
Composição de Greg Walker / Mitch Allan
9.550 exibições
    • ½ Tom
    • A
    • Bb
    • B
    • C
    • Db
    • D
    • Eb
    • E
    • F
    • F#
    • G
    • Ab
  • Adicionar à lista

    0 comentários

    Ver todos os comentários

    Conseguiu tocar?

    0 Tocaram 0 Ainda não

    Grave um vídeo tocando Right Now e nos envie!

    00:00 / 00:00
    outros vídeos desta música
    repetir qualidade Automático
    Outros vídeos desta música
    00:00 / 00:00
    Automático

    Cifra Club Pro

    Aproveite o Cifra Club com benefícios exclusivos e sem anúncios
    Cifra Club Pro
    Aproveite o Cifra Club com benefícios exclusivos e sem anúncios
    OK