Cifra Club

Camilo

State Radio

Cifra: Principal (violão e guitarra)
tom: G
Us Against the Crown
Tabbed by Owen Sakovics
Tuning: E A D G B E **For Live Recordings Tune to Eb**

* - Tremelo pick note many times
**The lead fills are at the bottom of the tablature**

 Dm     Dm                G       G               Dm  Dsus2
-1------1-------0-0-0-----3-------3--3---3--------1---0----|
-3------3---3s5-5-5-5---0-0-------0--0---0--------3---3----|
-2------2---2s5-5-5-5s7-0-0-------0--0---0--------2---2----|     x1
-0------0-----------------0-------0--0---0-0---0--0---0----|
--------------------------2-------2--2-2h3-3s5-------------|
--------------------------3-------3------------------------|

 Dm     Bb      F       C
-1------1-------1-------0--|
-3------3-------1-------1--|
-2------3-------2-------0--|     x3
-0------3-------3-------2--|
--------1-------3-------3--|
----------------1----------|

 Dm     Bb      F       C       Dsus2
-1------1-------1-------0------------|
-3------3-------1-------1-------3----|
-2------3-------2-------0-------2----|   x1
-0------3-------3-------2-------0----|
--------1-------3-------3------------|
----------------1--------------------|

 Dm     Bb      F       C
-1------1-------1-------0------------|
-3------3---3s5-1-------1---------1--|
-2------3---3s5-2-------0-------0----|   x1
-0------3---3s5-3-------2---0h2------|
--------1-------3-------3------------|
----------------1--------------------|

 Dm     Bb      F       C
-1------1-------1-------0--|
-3------3-------1-------1--|
-2------3-------2-------0--|     x1
-0------3-------3-------2--|
--------1-------3-------3--|
----------------1----------|

 Dm     F       F       C       Dm      F       C       Dm      C       Dm
-1------1-------1-------0-------1-------1-------0-------1-------0-------1---0--|
-3------1-------1-------1-------3-------1-------1-------3-------1-------3---3--|
-2------2-------2-------0-------2-------2-------0-------2-------0-------2---2--| x1
-0------3-------3-------2-------0-------3-------2-------0-------2-------0---0--|
--------3-------3-------3---------------3-------3---------------3--------------|
--------1-------1-----------------------1--------------------------------------|

 Dm     Bb      F       C
-1------1-------1-------0--|
-3------3-------1-------1--|
-2------3-------2-------0--|     x3
-0------3-------3-------2--|
--------1-------3-------3--|
----------------1----------|

 Dm     Bb      F       C       G
-1------1-------1-------0-------3--|
-3------3-------1-------1-------3--|
-2------3-------2-------0-------4--|     x1
-0------3-------3-------2-------5--|
--------1-------3-------3-------5--|
----------------1---------------3--|

 Dm     Bb      F       C
-1------1-------1-------0--|
-3------3-------1-------1--|
-2------3-------2-------0--|     x4
-0------3-------3-------2--|
--------1-------3-------3--|
----------------1----------|

LEAD CHORDS:
-1*--5*--0*--0*--1*--5*--0*--0*--0*---|
-3*--6*--5*--1*--3*--6*--5*--8*--10*--|
--------------------------------------|  x1
--------------------------------------|
--------------------------------------|
--------------------------------------|

LEAD:
-------------------------------------------|
-------------------------------------------|
-2-2-5-2--2-2-2-5-2--2-2-2-5-2--2-2-2-5-2--|
-------------------------------------------|
-------------------------------------------|
-------------------------------------------|

 Dm     F       C       Dm
-1------1-------0-------1--|
-3------1-------1-------3--|
-2------2-------0-------2--|     x4
-0------3-------2-------0--|
--------3-------3----------|
--------1------------------|

------------------------------------------------x-x-x-x-----------------------------------------------|
------------------------------------------------x-x-x-x-----------------------------------------------|

 x1
---5h7------5h7----------3-0----5h7------5h7----x-x-x-x----5h7------5h7----------3-0---------------3--|
------------------------------------------------x-x-x-x-----------------------------------------------|
------------------------------------------------x-x-x-x-----------------------------------------------|

-----------------------------------------------------------------------------------------------------|
-----------------------------------------------------------------------------------------------------|

  x1
---5h7------5h7----------3-0----5h7-----------------------5h7------5h7----------3-0---------------3--|
-----------------------------------------------------------------------------------------------------|
-----------------------------------------------------------------------------------------------------|

-----------------------------------------------------------------|
-----------------------------------------------------------------|
-----------------------------------------------------------------|       x1
-----------------------------------------------------------------|
-8--8-s12--12--12s7--7--7s3--3--3s8--8--8-s12--12--12s7--7--7s3--|
-10-10s13--13--13s8--8--8s5--5--5s10-10-10s13--13--13s8--8--8s5--|

LEAD FILLS:
-5-------------------------5--------------------------------------------------|
----6--5h6-5------------------6--5h6-5-----------------5h6--5h6-5-------------|
-------------7-5----7--5---------------7-5--------5--5------------7-5------5--|
-----------------7-------------------------7--5h7---------------------7--7----|
------------------------------------------------------------------------------|
------------------------------------------------------------------------------|

--------------------------5------------------------------------------------|
-6--5h6-5-------------5-6---6-5---5-6--5h6p5h6p5h6p5h6-5h6-5---------------|
----------7-5------5------------7----------------------------7-5--------5--|
--------------7--7-----------------------------------------------7--5-7----|
---------------------------------------------------------------------------|
---------------------------------------------------------------------------|
killat
00:00 / 00:00
Outros vídeos desta música
Repetir
Outros vídeos desta música
Compositor não encontrado.
551 exibições
    • ½ Tom
    • A
    • Bb
    • B
    • C
    • Db
    • D
    • Eb
    • E
    • F
    • F#
    • G
    • Ab
  • Adicionar à lista

    0 comentários

    Ver todos os comentários

    Conseguiu tocar?

    0 Tocaram 0 Ainda não

    Grave um vídeo tocando Camilo e nos envie!

    00:00 / 00:00

    Cifra Club Pro

    Aproveite o Cifra Club com benefícios exclusivos e sem anúncios
    Cifra Club Pro
    Aproveite o Cifra Club com benefícios exclusivos e sem anúncios
    OK