Cifra Club

Unfortunates

State Radio

Cifra: Principal (violão e guitarra)
tom: Bb
Year of the Crow
Tabbed by Owen Sakovics
Tuning: E A D G B E **For live recordings tune to Eb**
*

xxxxxxxxxxxx - Play chokes in the shape of the chord

 Fm     Fm      Fm      Bb      Fm      Bb      C#      Eb
-8------8-------8-------6-------8-------6-------9-------6--|
-9------9-------9-------6-------9-------6-------9-------8--|
-10-----10------10------7-------10------7-------10------8--|     x1
-10-----10------10------8-------10------8-------11------8--|
-8------8-------8-------8-------8-------8-------11------6--|
------------------------6---------------6-------9----------|

 Fm     Fm      Fm      Bb      Fm      Bb      C#      Eb      Fm      C
-8------8-------8-------6-------8-------6-------9-------6-------8-------8---|
-9------9-------9-------6-------9-------6-------9-------8-------9-------8---|
-10-----10------10------7-------10------7-------10------8-------10------9---|    x1
-10-----10------10------8-------10------8-------11------8-------10------10--|
-8------8-------8-------8-------8-------8-------11------6-------8-------10--|
------------------------6---------------6-------9-----------------------8---|

 Fm     Eb      C#      C#      Fm      Bb      C
-8------6-------9-------9-------8-------6-------8---|
-9------8-------9-------9-------9-------6-------8---|
-10-----8-------10------10------10------7-------9---|    x2
-10-----8-------11------11------10------8-------10--|
-8------6-------11------11------8-------8-------10--|
----------------9-------9---------------6-------8---|

 Fm     Bb      Fm      Bb      C#      Eb      Fm      Em
-8------6-------8-------6-------9-------6-------8-------7--|
-9------6-------9-------6-------9-------8-------9-------8--|
-10-----7-------10------7-------10------8-------10------9--|     x1
-10-----8-------10------8-------11------8-------10------9--|
-8------8-------8-------8-------11------6-------8-------7--|
--------6---------------6-------9--------------------------|

 Fm     Bb      Fm      Bb      C#      Eb      Fm      C
-8------6-------8-------6-------9-------6-------8-------8---|
-9------6-------9-------6-------9-------8-------9-------8---|
-10-----7-------10------7-------10------8-------10------9---|    x1
-10-----8-------10------8-------11------8-------10------10--|
-8------8-------8-------8-------11------6-------8-------10--|
--------6---------------6-------9-----------------------8---|

 Fm     Eb      C#      C#      Fm      Bb      C
-8------6-------9-------9-------8-------6-------8---|
-9------8-------9-------9-------9-------6-------8---|
-10-----8-------10------10------10------7-------9---|    x1
-10-----8-------11------11------10------8-------10--|
-8------6-------11------11------8-------8-------10--|
----------------9-------9---------------6-------8---|

 Fm     Eb      C#      C#      Fm      Bb      C       Fm
-8------6-------9-------9-------8-------6-------8-------8---|
-9------8-------9-------9-------9-------6-------8-------9---|
-10-----8-------10------10------10------7-------9-------10--|    x1
-10-----8-------11------11------10------8-------10------10--|
-8------6-------11------11------8-------8-------10------8---|
----------------9-------9---------------6-------8-----------|

xxxxxxxxxxxxxxxxxxxxxxxxxxxxxxxxxxxxxxxxxxxxxxxxxx
 Fm     Fm      Fm      Fm      Fm      Fm      Fm      Fm
-8------8-------8-------8-------8-------8-------8-------8---|
-9------9-------9-------9-------9-------9-------9-------9---|
-10-----10------10------10------10------10------10------10--|    x1
-10-----10------10------10------10------10------10------10--|
-8------8-------8-------8-------8-------8-------8-------8---|
------------------------------------------------------------|

 C#5    F#      Bb      G#      Eb      Eb      F5      F5
------------------------------------------------------------|
------------------------------------------------------------|
--------10------15------13----------------------------------|    x1
-11-----10------15------13------13------13------15------15--|
-11-----8-------13------11------13------13------15------15--|
-9------------------------------11------11------13------13--|

 C#     F#      Bbm     Ebm     G#      F#      Bbm
-9------9-------6-------6-------4-------9-------6--|
-9------11------6-------7-------4-------11------6--|
-10-----11------6-------8-------5-------11------6--|     x1
-11-----11------8-------8-------6-------11------8--|
-11-----9-------8-------6-------6-------9-------8--|
-9--------------6---------------4---------------6--|

 C#     G#      Bbm     G#      Eb      F
-4------4-------6-------4-------6-------8---|
-6------4-------6-------4-------8-------10--|
-6------5-------6-------5-------8-------10--|    x1
-6------6-------8-------6-------8-------10--|
-4------6-------8-------6-------6-------8---|
--------4-------6-------4-------------------|

 C#     F#      Bbm     Ebm     G#      F#      Bbm
-9------9-------6-------6-------4-------9-------6--|
-9------11------6-------7-------4-------11------6--|
-10-----11------6-------8-------5-------11------6--|     x2
-11-----11------8-------8-------6-------11------8--|
-11-----9-------8-------6-------6-------9-------8--|
-9--------------6---------------4---------------6--|
00:00 / 00:00
Outros vídeos desta música
Repetir
Outros vídeos desta música
Composição de State Radio
134 exibições
    • ½ Tom
    • A
    • Bb
    • B
    • C
    • Db
    • D
    • Eb
    • E
    • F
    • F#
    • G
    • Ab
  • Adicionar à lista

    0 comentários

    Ver todos os comentários

    Conseguiu tocar?

    0 Tocaram 0 Ainda não

    Grave um vídeo tocando Unfortunates e nos envie!

    00:00 / 00:00

    Cifra Club Pro

    Aproveite o Cifra Club com benefícios exclusivos e sem anúncios
    Cifra Club Pro
    Aproveite o Cifra Club com benefícios exclusivos e sem anúncios
    OK