Cifra Club

The Only

Static-X

Cifra: Principal (violão e guitarra)
exibições 16.084
Tom: A#
Tabbed by Alan de Souza Bernardes

I write in two different tunes but in the original tuning
it's a little bit easier. It will be easy if you hear the music when are playing 
and the effects will be easy

nh = natural harmonic

1st Version(EADGBE)

Intro Guitar 1
   C5  D#5 G#5 A#5
e|---------------------------
B|---------------------------
G|--5---8--------------------
D|--5---8---6---8------------
A|--3---6---6---8------------
E|--3---6---4---6--7---------
   

E|----------------------------------------------------
B|----------------------------------------------------
G|-12-12-12-12-12-12-12-12-10-10-10-10-10-10-10-10-8-8
D|--x--x--x--x--x--x--x--x--x--x--x--x--x--x--x--x-x-x
A-10-10-10-10-10-10-10-10--8--8--8--8--8--8--8--8-6-6
E|----------------------------------------------------

E|-----------------------------
B|-----------------------------
G|-8-8-8-8-8-8-6-6-6-6-8-8-8-8-
D|-x-x-x-x-x-x-x-x-x-x-x-x-x-x-
A|-6-6-6-6-6-6-4-4-4-4-6-6-6-6-
E|-----------------------------

Guitar 2 make fx who i have transcribed from 
keyboard

   repeat  the ritornello 3 times and do the part out the return--/                             
e-|-------11-----------------|---------------      222  X    X
B|-|--------------------------|---------------     2   2  X  X
G|-|o-8--8-------8--8--8-----o|8-8-7-8-8-8-7-8        2    XX
D|-|o------------------------o|---------------       2     XX
A|-|--------------------------|---------------      2     X  X
E|-|--------------------------|---------------     22222 X    X


Verse
                               
E|-8--10--11--10---
B|---8---8---8---8-
G|-----------------       Repeat 4 times
D|-----------------
A|-----------------
E|-----------------

Chorus (Intro)
   C5  D#5 G#5 A#5
e---------------------------
B|---------------------------
G|--5---8--------------------
D|--5---8---6---8------------
A|--3---6---6---8------------
E|--3---6---4---6--7---------
   
E|----------------------------------------------------
B|----------------------------------------------------
G|-12-12-12-12-12-12-12-12-10-10-10-10-10-10-10-10-8-8
D|--x--x--x--x--x--x--x--x--x--x--x--x--x--x--x--x-x-x
A-10-10-10-10-10-10-10-10--8--8--8--8--8--8--8--8-6-6
E|----------------------------------------------------

E|-----------------------------
B|-----------------------------
G|-8-8-8-8-8-8-6-6-6-6-8-8-8-8-
D|-x-x-x-x-x-x-x-x-x-x-x-x-x-x-
A|-6-6-6-6-6-6-4-4-4-4-6-6-6-6-
E|-----------------------------

Verse
                               
E|-8--10--11--10---
B|---8---8---8---8-
G|-----------------       Repeat 4 times
D|-----------------
A|-----------------
E|-----------------

Chorus (Intro) with a little add on the end 
   C5  D#5 G#5 A#5
e---------------------------
B|---------------------------
G|--5---8--------------------
D|--5---8---6---8------------
A|--3---6---6---8------------
E|--3---6---4---6--7---------
   
E|----------------------------------------------------
B|----------------------------------------------------
G|-12-12-12-12-12-12-12-12-10-10-10-10-10-10-10-10-8-8
D|--x--x--x--x--x--x--x--x--x--x--x--x--x--x--x--x-x-x
A-10-10-10-10-10-10-10-10--8--8--8--8--8--8--8--8-6-6
E|----------------------------------------------------

E|--------------------------------------11-10-11---
B|-------------------------------------------------
G|-8-8-8-8-8-8-6-6-6-6-8-8-8-8---------------------
D|-x-x-x-x-x-x-x-x-x-x-x-x-x-x---------------------
A|-6-6-6-6-6-6-4-4-4-4-6-6-6-6---------------------
E|-------------------------------------------------

Solo

E|---------------------------------------------------------------------
B|---------------------------------------------------------------------
G|-5----8-7-3----8-7----------------------------12-12-12-12-12-12-12-12
D|-x----x-x-x----x-x-6-5-6-8-10----8-10-8-10-12--x--x--x--x--x--x--x--x
A|-3----6-5-1----6-5-x-x-x-x--x----x--x-x--x--x-10-10-10-10-10-10-10-10
E|-------------------4-3-4-6--8----6--8-6--8-10------------------------

E|---------------------------------------------------------
B|---------------------------------------------------------
G|-10-10-10-10-10-10-10-10-8-8-8-8-8-8-8-8-6-6-6-6-8-8-8-8-
D|--x--x--x--x--x--x--x--x-x-x-x-x-x-x-x-x-x-x-x-x-x-x-x-x-
A|--8--8--8--8--8--8--8--8-6-6-6-6-6-6-6-6-4-4-4-4-6-6-6-6-
E|---------------------------------------------------------

Bridge

E|-------------|---------------------
B|-------------|--------------------- make the 1st a time 
G|-------------|--------------------- Repeat 2nd part 4 times 
D|-8h7-7--8h7-7|----8h7-7--8h7-7--8nh and once again the 1st part
A|-6h5-5--6h5-5|----6h5-5--6h5-5-----
E|-------------|---------------------

Chorus (Intro) 2x
   C5  D#5 G#5 A#5
e---------------------------
B|---------------------------
G|--5---8--------------------
D|--5---8---6---8------------
A|--3---6---6---8------------
E|--3---6---4---6--7---------
   
E|----------------------------------------------------
B|----------------------------------------------------
G|-12-12-12-12-12-12-12-12-10-10-10-10-10-10-10-10-8-8
D|--x--x--x--x--x--x--x--x--x--x--x--x--x--x--x--x-x-x
A-10-10-10-10-10-10-10-10--8--8--8--8--8--8--8--8-6-6
E|----------------------------------------------------

E|-----------------------------                 --11-10-11-
B|-----------------------------make this        -----------
G|-8-8-8-8-8-8-6-6-6-6-8-8-8-8-on the end of the----------- 
D|-x-x-x-x-x-x-x-x-x-x-x-x-x-x-2nd time         -----------
A|-6-6-6-6-6-6-4-4-4-4-6-6-6-6-                 -----------
E|-----------------------------                 -----------


Start this riff at the second time of the ending chorus
Repeat  the ritornello 3 times and do the part out the return--/                             
e-|-------11-----------------|---------------      222  X    X
B|-|--------------------------|---------------     2   2  X  X
G|-|o-8--8-------8--8--8-----o|8-8-7-8-8-8-7-8        2    XX
D|-|o------------------------o|---------------       2     XX
A|-|--------------------------|---------------      2     X  X
E|-|--------------------------|---------------     22222 X    X


Ending riff
Guitar 1
e---------------11-10-11----------
B|---------------------------------
G|---------------------------------
D|---------------------------------
A|---------------------------------
E|---------------------------------
Guitar 2
e---------------------------------
B|---------------------------------
G|-5-5--5-5-5-5----5-5--5-5-5-5----
D|-5-5--5-5-5-5----5-5--5-5-5-5----
A|-3-3--3-3-3-3----3-3--3-3-3-3----
E|-3-3--3-3-3-3----3-3--3-3-3-3----

2nd Version(CGCFAD)

Intro
  Guitar 1
D|-------------------------------------------------------------------------|
A|-------------------------------------------------------------------------|
F|-------3--5-----14--------12-------10--------8------10-------------------|
C|-0--3--3--5------x-(x16)---x-(x16)--x-(x16)--x-(x8)--x-(x8)--------------|
G|-0--3--1--3--4--12--------10--------8--------6-------8-------------------|
C|-0--3--------------------------------------------------------------------|

Guitar 2 make fx who i have transcribed from 
keyboard

   repeat  the ritornello 3 times and do the part out the return--/                             
D|-|---------13---------------|----------------------      222  X    X
A|-|--------------------------|----------------------     2   2  X  X
F|-|o-10--10-----10--10--10--o|10-10-9-10-10-10-9-10-        2    XX
C|-|o------------------------o|----------------------       2     XX
G|-|--------------------------|----------------------      2     X  X
C|-|--------------------------|----------------------     22222 X    X

Verse
  
D|-10----12----13----12-----
A|----10----10----10----10--
F|--------------------------   Repeat 4 times 
C|--------------------------
G|--------------------------
C|--------------------------

Chorus
  
D|-------------------------------------------------------------------------|
A|-------------------------------------------------------------------------|
F|-------3--5-----14--------12-------10--------8------10-------------------|
C|-0--3--3--5------x-(x16)---x-(x16)--x-(x16)--x-(x8)--x-(x8)--------------|
G|-0--3--1--3--4--12--------10--------8--------6-------8-------------------|
C|-0--3--------------------------------------------------------------------|

Verse
  
D|-10----12----13----12-----
A|----10----10----10----10--
F|--------------------------   Repeat 4 times 
C|--------------------------
G|--------------------------
C|--------------------------


Chorus with a little add on the end
  
D|-------------------------------------------------------------13-12-13----|
A|-------------------------------------------------------------------------|
F|-------3--5-----14--------12-------10--------8------10-------------------|
C|-0--3--3--5------x-(x16)---x-(x16)--x-(x16)--x-(x8)--x-(x8)--------------|
G|-0--3--1--3--4--12--------10--------8--------6-------8-------------------|
C|-0--3--------------------------------------------------------------------|

Solo

D|------------------------------------------------(x16)(x16)(x16)-(x8)-(x8)|
A|-------------------------------------------------------------------------|
F|-7--10-9-5--10-9----------------------------------14---12---10----8---10-|
C|-x---x-x-x---x-x-8-7-8-10-12--10-12-14--12-14-15---x----x----x----x----x-|
G|-5---8-7-3---8-7-8-7-8-10-12--10-12-14--12-14-15--12---10----8----6----8-|
C|-----------------8-7-8-10-12--10-12-14--12-14-15-------------------------|

Bridge
  Guitars 1 & 2
D|--------------|--------------------------|-------------------------------|
A|-(First Time)-|---------------4nh--------|-(Last Time)-------------------|
F|--------------|--------------------------|-------------------------------|
C|-3-2-2--3-2-2-|-3-2-2--3-2-2-------------|---3-2-2--3-2-2----------------|
G|-3-2-2--3-2-2-|-3-2-2--3-2-2-------(x4)--|---3-2-2--3-2-2----------------|
C|-3-2-2--3-2-2-|-3-2-2--3-2-2-------------|---3-2-2--3-2-2----------------|

Chorus with a little add on the end
  2X
D|------------------------------------------------------------          -13-12-13----|
A|------------------------------------------------------------ make this-------------|
F|-------3--5-----14--------12-------10--------8------10------  on the  -------------|
C|-0--3--3--5------x-(x16)---x-(x16)--x-(x16)--x-(x8)--x-(x8)- 2nd time -------------|
G|-0--3--1--3--4--12--------10--------8--------6-------8------          -------------|
C|-0--3-------------------------------------------------------          -------------|

Start this riff at the second time of the ending chorus
  repeat  the ritornello 3 times and do the part out the return--/                            
D|-|---------13---------------|----------------------      222  X    X
A|-|--------------------------|----------------------     2   2  X  X
F|-|o-10--10-----10--10--10--o|10-10-9-10-10-10-9-10-        2    XX
C|-|o------------------------o|----------------------       2     XX
G|-|--------------------------|----------------------      2     X  X
C|-|--------------------------|----------------------     22222 X    X

Ending riff
Guitar 1
D|---------------13-12-13----------
A|---------------------------------
F|---------------------------------
C|---------------------------------
G|---------------------------------
C|---------------------------------
Guitar 2
D|---------------------------------
A|---------------------------------
F|---------------------------------
C|-0-0--0-0-0-0----0-0--0-0-0-0----
G|-0-0--0-0-0-0----0-0--0-0-0-0----
C|-0-0--0-0-0-0----0-0--0-0-0-0----


Lyrics

I'm winning, you're losing
I'm falling, your agony 
Lower than lower, before 
Your forgotten memory 

My heaven, your hell 
I'm killing, your fantasy 
More and more, you follow
Your divorced reality 

You're trying to take me 
You're trying to make me 
This is the only 
Give me the only thing 
I'm tired of trying 
I'm tired of lying 
The only thing I understand is what I feel 

Identity, fantasy 
Heresy, killing me 
Lower than lower, before 
This thing to feed 

Hypocrite, lunatic 
Fanatic, heretic 
More and more, you follow
Your divorced reality 

You're trying to take me 
You're trying to make me 
This is the only 
Give me the only thing 
I'm tired of trying  
I'm tired of lying 
The only thing I understand is what I feel 

Hypocrite, lunatic, fanatic, heretic
Acordes para:
    Composição: Static-X Colaboração e revisão:
    • Alan Bernardes

    0 comentários

    mostrar mais comentários

    Conseguiu tocar?

    3 tocaram 0 ainda não

    Grave um vídeo tocando The Only e mande pra gente!

    00:00 / 00:00
    outros vídeos desta música
    repetir qualidade Automático
    Outros vídeos desta música
    00:00 / 00:00
    Automático
    OK