Cifra Club

Conflitos mortais

Stauros

Cifra: Principal (violão e guitarra)
Selo Cifra Club: esta cifra foi revisada para atender aos critérios oficiais da nossa Equipe de Qualidade.
tom: F
  _
 / \  = Ligadura
/   \
_______________________________________________________________________
                                     __
e|---8------------------------------/--\---------|
B|-----8---------------------------/----\--------|
G|-----------9-10-----9-10---12---10-12-10-9-----|
D|-0-----0-0------0-0------0----0------------10--|
A|-----------------------------------------------|
E|-----------------------------------------------|

e|---8-------------------------|
B|-----8-----------------------|
G|-----------9-10-----9-10-7-5-|
D|-0-----0-0------0-0------7-5-|
A|-------------------------5-3-|
E|-------------------------5-3-|
Guita2
                                         __ 
e|---13---------------------------------/--\---------|
B|------13-----------------------------/----\--------|
G|-------------12-14-----12-14---15---14-15-14-12----|
D|-0-------0-0-------0-0-------0----0-------------15-|
A|---------------------------------------------------|
E|---------------------------------------------------|

e|---13----------------------------|
B|------13-------------------------|
G|-------------12-14-----12-14-3-5-|
D|-0-------0-0-------0-0-------3-5-|
A|-----------------------------5-3-|
E|-----------------------------5-3-|
-=-=-=-=-=-=-=-=-=-=-=-=-=-=-=-=-=-=-=-=-=-=-=-=-=-=-=-=-=-=-=-=-=-=-=

Refrão

e|----------------------------|
B|-8-6-5-6-5-------6-----6-5--|
G|-7-7-5-5-5-3-----5-----5-5--|
D|-7-7-5-5-5-3-----5-----5-5--|
A|-5---------1-3-3-3-3-3-3-3--|
E|----------------------------|

e|-----------|-----------|-----------|----------------|
B|-----------|-----------|-----------|----------------|
G|-5-7-7-5-7-|-5-7-7-5-7-|-5-7-7-5-7-|----------------|
D|-5-7-7-5-7-|-5-7-7-5-7-|-5-7-7-5-7-|-7-5-3--5--7--5-|
A|-3-5-5-3-5-|-3-5-5-3-5-|-3-5-5-3-5-|-7-5-3--5--7--5-|
E|-3-5-5-3-5-|-3-5-5-3-5-|-3-5-5-3-5-|-5-3-1--3--5--3-|
Outros vídeos desta música
    4.266 exibições
      • ½ Tom
      • A
      • Bb
      • B
      • C
      • Db
      • D
      • Eb
      • E
      • F
      • F#
      • G
      • Ab
    • Adicionar à lista

    Afinação da cifra

    Afinador online

      0 comentários

      Ver todos os comentários

      Entre para o Cifra Club PRO

      Tenha acesso a benefícios exclusivos no App e no Site

      • Chega de anúncios

      • Badges exclusivas

      • Mais recursos no app do Afinador

      • Atendimento Prioritário

      • Aumente seu limite de lista

      • Ajude a produzir mais conteúdo

      Cifra Club Pro

      Aproveite o Cifra Club com benefícios exclusivos e sem anúncios
      Cifra Club Pro
      Aproveite o Cifra Club com benefícios exclusivos e sem anúncios
      Ops (: Contenido disponible sólo en portugués.
      OK