Cifra Club

Rusty Machine

Stauros

Cifra: Principal (violão e guitarra)
tom: E
Música: Alessandro lucindo
Letra: Vê Domingos N.
TAB P/ GUITARRA
TON: Em

           
E-0/-0----0--0/0--0/0----0/--0/-0---0/0--0/0---0---0/0---0--0/0---0/0---
B-0/-0----0--0/0--0/0----0/--0/-0---0/0--0/0---0---0/0---0--0/0---0/0---
G-7/-9----9--7/9--9/11---11/-12/11--9/7--7/9---9---7/5---5--4/5---5/7---
D-----------------------------------------------------------------------
A-5/-7----7--5/7--7/9----9/--10/9---7/5--5/7---7---5/3---3--2/3---3/5---
E-0/-0----0--0/0--0/0----0/--0-/0---0/0--0/0---0---0/0---0--0/0---0/0---
                                                               Repete 3x 

E-----------------------------------------------------------------------
B-----------------------------------------------------------------------
G-7/9--9--7/9--9/11--11/12/11--9/7--7/9--9--7/5--5--4/5--5/7--7--7------
D-7/9--9--7/9--9/11--11/12/11--9/7--7/9--9--7/5--5--4/5--5/7--7--7------
A-5/7--7--5/7--7/9---9-/10/9---7/5--5/7--7--5/3--3--2/3--3/5--5--5------
E-5/7--7--5/7--7/9---9-/10/9---7/5--5/7--7--5/3--3--2/3--3/5--5--5------
                                                               Repete 2x  
1ª ESTROFE
E---------------------------------------------------------------------------
B-----------------------------------3---------------------------------------
G-----------------------------------0-----------------------------------3---
D-2--2--0h2--2-2-2-2---2--0h2--2-2--0---2-2--0h2--2-2-2-2---2--0h2-2-2--3---
A-2--2--0h2--2-2-2-2---2--0h2--2-2------2-2--0h2--2-2-2-2---2--0h2-2-2--1---
E-0--0-------0-0-0-0---0-------0-0--3---0-0-------0-0-0-0---0------0-0--1---
                                                               REPETE 5X


E----------------------------------------------------------------------------
B------------------------------3---------------------------------------------
G------------------------------0-----------------------------3-3-3-3-3-3-3---
D-2--2-0h2-2-2-2-2-2--0h2-2-2--0--2-2--0h2--2-2-2-2-2--0h2-2-3-3-3-3-3-3-3---
A-2--2-0h2-2-2-2-2-2--0h2-2-2-----2-2--0h2--2-2-2-2-2--0h2-2-1-1-1-1-1-1-1---
E-0--0-----0-0-0-0-0------0-0--3--0-0-------0-0-0-0-0------0-1-1-1-1-1-1-1---

REFRÃO

E-----------------------------------------------------------------------------
B-----------------------------------------------------------------------------
G-----------------------------------------------------------------------------
D-2-2--0--7-7/8/7--5-----5-6-7-7/8-----7-2-2---0--7-7/8/7--5---5-6-7-8----7-8-
A-2-2--0--7-7/8/7--5--0--5-6-7-7/8-----7-2-2---0--7-7/8/7--5-0-5-6-7-8----7-8-
E-0-0-----5-5/6/5--3--0--3-4-5-5/6-X-X-5-0-0------5-5/6/5--3-0-3-4-5-6-X--5-6-
                                                                   REPETE 2X
2ªESTROFE=1ª REPETINDO 3X +REFRÃO

E---------------------------------
B---------------------------------
G--------------------------------- REPETE 4X
D-2---6---8-----8---9---8---6-----
A-2-------------------------------
E-0-0-4-0-6-0-0-6-0-7-0-6-0-4-0---

BASE SOLO

E-----------------------------------------------
B-----------------------------------------------
G----------------------------------------------- REPETE 4X
D-2-----6----6/8--9/11-11/12/11/9--8-6----6/8--- 
A-2---------------------------------------------
E-0-0---4/0--4/6--7/9---9/10/9/7---6-4/0--4/6---
       !                                      !

E-----------------------------------------------
B-----------------------------------------------
G-----------------------------------------------REPETE 2X
D-2-----6----6-------6-------6----6/8/6---------
A-2---------------------------------------------
E-0-0---4/0--4/0--0--4/0--0--4/0--4/6/4---------
      !                                 ! 

E-----------------------------------------------
B-----------------------------------------------
G-----------------------------------------------
D-2----6----6----6----6----6/8/6----------------
A-2---------------------------------------------
E-0-0--4/0--4/0--4/0--4/0--4/6/4----------------
 


E------------------------------------------------
B------------------------------------------------
G------------------------------------------------REPETE 2X
D-2----6----6-------6-------6----6/8/6-----------
A-2----------------------------------------------
E-0-0--4/0--4/0--0--4/0--0--4/0--4/6/4-----------

E------------------------------------------------------------------
B------------------------------------------------------------------
G--------------------------3-3-3-3---3-3-3-3---3-3-3-3---3-3-3-3---
D-2----6----6----6----6----3-3-3-3---3-3-3-3---3-3-3-3---3-3-3-3---
A-2------------------------1-1-1-1---1-1-1-1---1-1-1-1---1-1-1-1---
E-0-0--4/0--4/0--4/0--4/0--1-1-1-1---1-1-1-1---1-1-1-1---1-1-1-1---

REFRÃO TERMINANDO EM Bb.
00:00 / 00:00
Outros vídeos desta música
Repetir
Outros vídeos desta música
Compositor não encontrado.
2.674 exibições
    • ½ Tom
    • A
    • Bb
    • B
    • C
    • Db
    • D
    • Eb
    • E
    • F
    • F#
    • G
    • Ab
  • Adicionar à lista

    0 comentários

    Ver todos os comentários

    Entre para oCifra Club PRO

    Tenha acesso a benefícios exclusivos no App e no Site

    • Chega de anúncios

    • Prioridade de compra em lançamentos

    • Mais recursos no app do Afinador

    • Atendimento Prioritário

    • Descontos nos produtos Cifra Club

    • Ajude a produzir mais conteúdo

    00:00 / 00:00

    Cifra Club Pro

    Aproveite o Cifra Club com benefícios exclusivos e sem anúncios
    Cifra Club Pro
    Aproveite o Cifra Club com benefícios exclusivos e sem anúncios
    OK