Cifra Club

The Second Mile

Stauros

Cifra: Principal (violão e guitarra)
tom: B
 
 / 
/ \ = ligadura 
   __ 
  /  \ 
 /    \  = ligadura 
/      \ 
5/ 7 = slide 
~ = alavanca 
/ = 
\ = 
 
 
                                      11                                7 
Chorus I      Bm11                  F# 7                    {Final   F#11 
---------------0------0------|-------0------0--------||--------------0----------------------||- 
---------------0--------0----|-------0--------0-----.||--------------0-------------0--------||. 
---------------7----------7--|-------3----------2----||--------------3-----------3---3------||- 
---------------9-------------|-------4---------------||-6X-----------4---------4-------4----||- 
---------------9-------------|-------4--------------.||--------------4-------4-----------4--||. 
---------7-----7--7----------|---2---2---2-----------||----------2---2-----2----------------||- 
 
                                     A# (#5)(b9) 
Refrão G#m(#5)                          (#11) 
-------------0----------------0-----------------0----------------0--------||------------------ 
-----------0---0------------0---0-------------0---0------------0---0-----.||------------------ 
---------8-------8--------8-------8---------9-------9--------9-------9----||------------------ 
-------6----------------6-----------------8----------------8--------------||-2X--------------- 
-----6----------------6-----------------9----------------9---------------.||------------------ 
---4----------------4-----------------6----------------6------------------||------------------ 
 
 
 
---------------------------------------------------------------------------------------------- 
-Chorus II igual a Chorus I (4X)-------------------------------------------------------------- 
---------------------------------------------------------------------------------------------- 
------Base do solo igual a refrão + Chorus I (2X)--------------------------------------------- 
---------------------------------------------------------------------------------------------- 
----------------------------------------------------Chorus III = Chorus I (2X) + refrão (2X)-- 
 
Solo do Baixo 
                                                 D9                   A9 
------0------0------|-----0------0--------||------5-----5-------|-----0------------0---------- 
------0--------0----|-----0--------0-----.||------5-------5-----|-----0----------0---0-------- 
------7----------7--|-----3----------2----||-3X---7---------7---|-----6--------6-------6------ 
------9-------------|-----4---------------||------7-------------|-----7------7---------------- 
------9-------------|-----4--------------.||------5--5----------|-----7----7------------------ 
---7--7--7----------|--2--2--2------------||--------------------|--5--5--5-------------------- 
 
                                                          7 
   G#m        Eb     G#m          Eb       Bm          C#m6 
----------------------------------------|--------------0----------------------0---||---------- 
--------------4-------------------4-----|--------3-----0---0------------3-----0---||.--------- 
--------4-----3--3---------4------3-----|------4---4---3--------------4---0---3---||---------- 
------6----6--5----------6---6----5-----|----4----------------------4-------------||---------- 
----6---------6--------6----------6-----|--2-----------4----------2-----------4---||.--------- 
--4------------------4------------------|-----------------------------------------||---------- 
 
 
 
---------------0---------0------------------------------------------------||------------------ 
-------3---------------3--------------------------------------H----------.||------------------ 
-----2---------------0----------0------3-----0---------------/\-----------||-Fad out---------- 
---0-------3-------2-----------------0----------2-------2---2--3--2-------||------------------ 
-----------------------------3-----1------3-----------3------------------.||------------------ 
----------------------------------------------------3---------------------||------------------ 
00:00 / 00:00
Outros vídeos desta música
Repetir
Outros vídeos desta música
Compositor não encontrado.
1.420 exibições
    • ½ Tom
    • A
    • Bb
    • B
    • C
    • Db
    • D
    • Eb
    • E
    • F
    • F#
    • G
    • Ab
  • Adicionar à lista

    0 comentários

    Ver todos os comentários

    Entre para oCifra Club PRO

    Tenha acesso a benefícios exclusivos no App e no Site

    • Chega de anúncios

    • Prioridade de compra em lançamentos

    • Mais recursos no app do Afinador

    • Atendimento Prioritário

    • Descontos nos produtos Cifra Club

    • Ajude a produzir mais conteúdo

    00:00 / 00:00

    Cifra Club Pro

    Aproveite o Cifra Club com benefícios exclusivos e sem anúncios
    Cifra Club Pro
    Aproveite o Cifra Club com benefícios exclusivos e sem anúncios
    OK