Cifra Club

Without Truces

Stauros

Cifra: Principal (violão e guitarra)
tom: E
Intro Baixo 
--------------------------||----------------------P--H--------/\---------------||------------- 
--------------------------||.------H---------------/\--------/--\-------------.||------------- 
----------------lavanca---||------/\--------------/--\------/----\------H------||------------- 
------------2-----/\------||-----8--9--8-----5---/----\----/------\----/\------|| 2X---------- 
------------2----/--\-----||.-------------------7--5--7---7-/-8-/-7---5--7----.||------------- 
------------0---/----\----||--0-----------0------------------------------------||------------- 
 
 
--------------------------------------------------------------------|-------/----------------- 
--------------------------------------------------------------------|------/-\---------------- 
----------H--------------------H--------H-----------------------H---|-----8-/-9---8-----7----- 
---------/\-------------------/\-------/\----------------------/\---|------------------------- 
--------6--7--6----5-----5---6--7-----6--7--6-----5------5----6--7--|-----6-/-7---6-----5----- 
---0-0-----------0---0-0---0-------0-----------0-----0-0---0--------|--0-------------0-----0-- 
 
 
-------------/-----|-------/---------------------------/---||--------/-------------------------- 
------------/-\----|------/-\-------------------------/-\--||.------/-\------------------------- 
-----7-----8-/-9---|-----8-/-9---8-----7-------7-----8-/-9-||------8-/-9--8-------7--------7---- 
-------------------|-----8-/-9---8-----7-------7-----8-/-9-||------8-/-9--8-------7--------7---- 
-----5-----6-/-7---|-----6-/-7---6-----5-------5-----6-/-7-||.-----6-/-7--6-------5--------5---- 
--0-----0----------|--0--6-/-7---6--0--5--0-0--5--0--6-/-7-||-0-0--6-/-7--6--0-0--5--0-0-0-5--0- 
 
 
----/------||-----||--------------/----------------------------------/------||----------------- 
---/-\----.||-----||.------------/-\--------------------------------/-\----.||----------------- 
--8-/-9----||4X---||------------8-/-9--8-----------7---------7-----8-/-9----||4X--------------- 
--8-/-9----||-----||------------8-/-9--8-----------7---------7-----8-/-9----||----------------- 
--6-/-7---.||-----||.-----------6-/-7--6-----------5---------5-----6-/-9---.||----------------- 
--6-/-7----||-----||---0-0-0-0--6-/-7--6--0-0-0-0--5--0-0-0--5--0--6-/-9----||----------------- 
 
                                                  Chorus I 
-----------------------------------------------||--2-2-------2-------------2-2---------2------- 
-----------------------------------------------||--2---2-------2--------3--2---2---------2----- 
-----------------------------------------------||--4-----4-------4------2--4-----4---------4--- 
--2-3-4-5-6---7-8-9--2-2-2-2--2-3-4-5-6---7-8--||--4---------------5-4--0--4------------------- 
--2-3-4-5-6-0-7-8-9--2-2-2-2--2-3-4-5-6-0-7-8--||--2---------------5-4--0--2------------------- 
--0-1-2-3-4-0-5-6-7--0-0-0-0--0-1-2-3-4-0-5-6--||--2-------2-------3-2-----2--------2---------- 
 
 
-----------||-----------------------------------------||--------------------------------------- 
--------3--||.---------------------------------------.||--------------------------------------- 
--------2--||-----------------------------------------||2X------------------------------------- 
--5--4--0--||---5-5-5-5--5-5-5-5--4-4-4-4--4-4-4-4----||--------------------------------------- 
--5--4--0--||.--5-5-5-5--5-5-5-5--4-4-4-4--4-4-4-4---.||--------------------------------------- 
--3--2-----||---3-3-3-3--3-3-3-3--2-2-2-2--2-2-2-2----||--------------------------------------- 
 
 2ª Parte 
||--------------------|--------------------||----||--------------------------|----------------- 
||.-------------------|-------------------.||----||.-------------------------|----------------- 
||--------------------|--------------------||2X--||--------------------------|----------------- 
||-----------3---3-2--|----------3---3-2---||----||-----------3---5-3---3-5--|---------3---5--- 
||.----------3---3-2--|----------3---3-2--.||----||.----------3---5-3-2-3-5--|---------3---5--- 
||--0-0-0-0--1-0-1-0--|--0-0-0-0-1-0-1-0---||----||--0-0-0-0--1-0-3-1-0-1-3--|-0-0-0-0-1-0-3--- 
 
                                        Refrão 
----------||------------------------|-------HP-----------HP----------HP-------------||--------- 
---------.||------------------------|-------/------------/-----------/-------------.||--------- 
------3---||4X----------------------|------/-\----------/-\---------/-\-------------||7X------- 
--3---3---||-----2-3-4-5-6---7-8----|--2--4-5-4--------4-5-4-------4-5-4------------||--------- 
--3-1-1--.||-----2-3-4-5-6-0-7-8----|--2---------5------------5----------5----5--2-.||--------- 
--1-0-1---||-----0-1-2-3-4-0-5-6----|--0------------7-----------6----------3--------||--------- 
 
                                                                Harm. 
-----------------------------------------------|--------------|-{5}---------------------------- 
-Chorus II-----------------------------5-------|------5-------|-----{5}------------------------ 
----igual------------------------------4-------|------4-------|---------{5}-------------------- 
-2ª parte + Refrão----2--2-2--2-2------2--2-2--|--2-2-2--2-2--|-------------{5}--2-3-4-5-6----- 
----------------------2--2-2--2-2--2-2-2--2-2--|--0-0-2--2-2--|------------------2-3-4-5-6----- 
----------------------0--0-0--0-0--0-0-0--0-0--|--0-0-0--0-0--|------------------0-1-2-3-4----- 
                         P.M  P.M         P.M 
                       Base do solo                                     Harm. 
---------------------|-------------------------------------------------{5}--------------------- 
---------------------|-----------------------------------------------------{5}----------------- 
---------------------|---------------------------------------------------------{5}------------- 
-----7-8-9-2-2-2-2---|--2-2--2-2-2-2-2--2-2--2-2-2-2-2--2-2--2-2-2-2-2-------------{5}--------- 
--0--7-8-9-2-2-2-2---|--2-2--2-2-2-2-2--2-2--2-2-2-2-2--2-2--2-2-2-2-2------------------------- 
--0--5-6-7-0-0-0-0---|--0-0--0-0-0-0-0--0-0--0-0-0-0-0--0-0--0-0-0-0-0------------------------- 
 
 
------------------------------2--2---------2---------------2--2---------2----------------||---- 
------------------------------2----2---------2----------3--2----2---------2----------3---||.--- 
------------------------------4------4---------4--------2--4------4---------4--------2---||---- 
--2-3-4-5-6---7-8-9--2-2-2-2--4-------------------5--4--0--4-------------------5--4--0---||---- 
--2-3-4-5-6-0-7-8-9--2-2-2-2--2-------------------5--4--0--2-------------------5--4--0---||.--- 
--0-1-2-3-4-0-5-6-7--0-0-0-0--2---------2---------3--2-----2---------2---------3--2------||---- 
 
 
---------------------------------------||-------------||----------------------------||--------|| 
--------------------------------------.||------Refrão-||---------------------------.||--------|| 
---------------------------------------||2X-------4X--||----------------------------||8X------|| 
--5-5-5-5--5-5-5-5--4-4-4-4--4-4-4-4---||-------------||-2--------------------------||----2---|| 
--5-5-5-5--5-5-5-5--4-4-4-4--4-4-4-4--.||-------------||-2--7-7-6---5---4---3------.||----2---|| 
--3-3-3-3--3-3-3-3--2-2-2-2--2-2-2-2---||-------------||-0--------7---6---5---3-2-1-||----0---|| 
00:00 / 00:00
Outros vídeos desta música
Repetir
Outros vídeos desta música
Compositor não encontrado.
1.261 exibições
    • ½ Tom
    • A
    • Bb
    • B
    • C
    • Db
    • D
    • Eb
    • E
    • F
    • F#
    • G
    • Ab
  • Adicionar à lista

    0 comentários

    Ver todos os comentários

    Entre para oCifra Club PRO

    Tenha acesso a benefícios exclusivos no App e no Site

    • Chega de anúncios

    • Prioridade de compra em lançamentos

    • Mais recursos no app do Afinador

    • Atendimento Prioritário

    • Descontos nos produtos Cifra Club

    • Ajude a produzir mais conteúdo

    00:00 / 00:00

    Cifra Club Pro

    Aproveite o Cifra Club com benefícios exclusivos e sem anúncios
    Cifra Club Pro
    Aproveite o Cifra Club com benefícios exclusivos e sem anúncios
    OK