Cifra Club

Born To Be Wild

Steppenwolf

Cifra: Principal
exibições 477.125
Tom: D
Introdução: E5  (Riff 1)


    E5
E|------------------------------------------|
B|------------------------------------------|
G|-9----9-9----9---9---9--------------------|
D|-9--x-9-9--x-9-x-9-x-9-11p9-12p9----------|
A|-7--x-7-7--x-7-x-7-x-7-7----7-------------|
E|-0--x---0--x---x---x----------------------|

   ↓  ↓ ↑ ↓  ↓ ↑ ↓ ↑ ↓ ↑ ↓    ↓


Primeira Estrofe:

 E5                    (Riff 2)
Get your motor running
 E5                     (Riff 2)
Head out on the highway
 E5                   (Riff 2)
Looking for adventure
       E5                (Riff 2)
In whatever comes my way

   P.M . . . . .

E|------------------------------------------|
B|------------------------------------------|
G|---------------9--9----9------------------|
D|---------------9--9-x--9-11p9-12----------|
A|---------------7--7-x--7-7----7-----------|
E|-0-0-0-0-0-0-0-0----x---------------------|

   ↓ ↓ ↓ ↓ ↓ ↓ ↓ ↓  ↑ ↓  ↑ ↓    ↓

Segunda Estrofe:

G5        A              E5  (Riff 3)
   Yeah, darling, gonna make  it happen
G5           A          E5  (Riff 4)
   Take the world in a love  embrace
G5      A            E5  (Riff 5)
   Fire all of your guns  at once and
G5     A          E5
   Explode into space


    G5     A      E5
E|------------------------------------------|
B|-3--3-3-2--2-2--------3-5b7r5--3-0--------|
G|-0--0-0-2--2-2----2/4---------------------|
D|-0--0-0-2--2-2----------------------------|
A|--------0--0-0-2--------------------------|
E|-3--3-3--------0--------------------------|

   ↓  ↓ ↑ ↓  ↓ ↑ ↓


    G5     A      E5
E|------------------------------------------|
B|-3--3-3-2--2-2----------------------------|
G|-0--0-0-2--2-2--------0-2b4r2--0----------|
D|-0--0-0-2--2-2----0h2------------0--------|
A|--------0--0-0-2--------------------------|
E|-3--3-3--------0--------------------------|

   ↓  ↓ ↑ ↓  ↓ ↑ ↓


    G5     A      E5
E|------------------------------------------|
B|-3--3-3-2--2-2--------3-3---3-----3-------|
G|-0--0-0-2--2-2----2/4---------2/4---------|
D|-0--0-0-2--2-2----------------------------|
A|--------0--0-0-2--------------------------|
E|-3--3-3--------0--------------------------|

   ↓  ↓ ↑ ↓  ↓ ↑ ↓


    G5     A      E5
E|------------------------------------------|
B|-3--3-3-2--2-2----------------------------|
G|-0--0-0-2--2-2----------------------------|
D|-0--0-0-2--2-2----------------------------|
A|--------0--0-0-2--------------------------|
E|-3--3-3--------0--------------------------|

   ↓  ↓ ↑ ↓  ↓ ↑ ↓


Terceira Estrofe:

E5                         (Riff 2)
I like smoke and lightning
 E5                 (Riff 2)
Heavy metal thunder
 E5                  (Riff 2)
Racing with the wind
         E5                    (Riff 2)
And the feeling that I'm under


Quarta Estrofe:

G5        A              E5  (Riff 6)
   Yeah, darling, gonna make  it happen
G5           A          E5  (Riff 7)
   Take the world in a love  embrace
G5      A            E5  (Riff 8)
   Fire all of your guns  at once and
G5     A          E5
   Explode into space


    G5     A      E5
E|------------------------------------------|
B|-3--3-3-2--2-2--------3-5b7r5--3-0--------|
G|-0--0-0-2--2-2----2/4---------------------|
D|-0--0-0-2--2-2----------------------------|
A|--------0--0-0-2--------------------------|
E|-3--3-3--------0--------------------------|

   ↓  ↓ ↑ ↓  ↓ ↑ ↓


    G5     A      E5
E|----------------------3-5b7r5--3\---------|
B|-3--3-3-2--2-2----3h5---------------------|
G|-0--0-0-2--2-2----------------------------|
D|-0--0-0-2--2-2----------------------------|
A|--------0--0-0-2--------------------------|
E|-3--3-3--------0--------------------------|

   ↓  ↓ ↑ ↓  ↓ ↑ ↓


    G5     A      E5
E|------------------------------------------|
B|-3--3-3-2--2-2----------------------------|
G|-0--0-0-2--2-2--------0-2b4~r-------------|
D|-0--0-0-2--2-2----0h2---------------------|
A|--------0--0-0-2--------------------------|
E|-3--3-3--------0--------------------------|

   ↓  ↓ ↑ ↓  ↓ ↑ ↓


    G5     A      E5
E|------------------------------------------|
B|-3--3-3-2--2------------------------------|
G|-0--0-0-2--2----9---9---9---9-------------|
D|-0--0-0-2--2--x-9-x-9-x-9-x-9-------------|
A|--------0--0--x-7-x-7-x-7-x-7-------------|
E|-3--3-3-------x---x---x---x---------------|

   ↓  ↓ ↑ ↓  ↓  ↓ ↑ ↓ ↑ ↓ ↑ ↓ ↑


Quinta Estrofe:

         E5
Like a true nature's child
         G
We were born, born to be wild
         A           G
We can climb so high
                  E5
We never want to die


Primeiro Refrão:

                E5  D5
Born to be wild
                E5  D5
Born to be wild


Solo 1: E7
        E7(9+)


E|-/12~\--10\--9/--10/--12~--12\--10\--9/--10/--12~~--|
B|----------------------------------------------------|
G|----------------------------------------------------|
D|----------------------------------------------------|
A|----------------------------------------------------|
E|----------------------------------------------------|



Sexta Estrofe:

 E5                    (Riff 2)
Get your motor running
 E5                     (Riff 2)
Head out on the highway
 E5                   (Riff 2)
Lookin' for adventure
       E5                 (Riff 2)
In whatever comes our way


Sétima Estrofe:

G5        A              E5  (Riff 9)
   Yeah, darling, gonna make  it happen
G5           A          E5  (Riff 10)
   Take the world in a love  embrace
G5      A            E5  (Riff 11)
   Fire all of your guns  at once and
G5     A          E5
   Explode into space


    G5     A      E5
E|------------------------------------------|
B|-3--3-3-2--2-2--------3-5b7r5--3-0--------|
G|-0--0-0-2--2-2----2/4---------------------|
D|-0--0-0-2--2-2----------------------------|
A|--------0--0-0-2--------------------------|
E|-3--3-3--------0--------------------------|

   ↓  ↓ ↑ ↓  ↓ ↑ ↓


    G5     A      E5
E|------------------------------------------|
B|-3--3-3-2--2-2----------------------------|
G|-0--0-0-2--2-2--------0-2b4r2p0-----------|
D|-0--0-0-2--2-2----0h2-----------2---------|
A|--------0--0-0-2--------------------------|
E|-3--3-3--------0--------------------------|

   ↓  ↓ ↑ ↓  ↓ ↑ ↓


    G5     A      E5
E|------------------------10----------------|
B|-3--3-3-2--2-2--------8-10b12r10-8--------|
G|-0--0-0-2--2-2------9---------------------|
D|-0--0-0-2--2-2----------------------------|
A|--------0--0-0-2--------------------------|
E|-3--3-3--------0--------------------------|

   ↓  ↓ ↑ ↓  ↓ ↑ ↓


    G5     A      E5
E|------------------------------------------|
B|-3--3-3-2--2------------------------------|
G|-0--0-0-2--2----9---9---9---9-------------|
D|-0--0-0-2--2--x-9-x-9-x-9-x-9-------------|
A|--------0--0--x-7-x-7-x-7-x-7-------------|
E|-3--3-3-------x---x---x---x---------------|

   ↓  ↓ ↑ ↓  ↓  ↓ ↑ ↓ ↑ ↓ ↑ ↓ ↑


Oitava Estrofe:

         E5
Like a true nature's child
         G
We were born, born to be wild
         A           G
We can climb so high
                  E5
We never want to die


Segundo Refrão:

                E5  D5
Born to be wild
                E5  D5
Born to be wild


Solo 2: E7
        E7(9+)


E|-/12~\--10\--9/--10/--12~--12\--10\--9/--10/--12~~--|
B|----------------------------------------------------|
G|----------------------------------------------------|
D|----------------------------------------------------|
A|----------------------------------------------------|
E|----------------------------------------------------|


E|-12—12/15~--15~-15/17~--17~--17/19-19~~--19~~-------|
B|----------------------------------------------------|
G|----------------------------------------------------|
D|----------------------------------------------------|
A|----------------------------------------------------|
E|----------------------------------------------------|
Acordes para:
    Composição: Mars BonfireColaboração e revisão:

    0 comentários

      mostrar mais comentários

      Conseguiu tocar?

      41tocaram0ainda não

      Grave um vídeo tocando Born To Be Wild e mande pra gente!

      00:00 / 00:00
      outros vídeos desta música
      repetirqualidadeautomática
      Outro vídeos desta música
        00:00 / 00:00
        automática
        Capítulos
        • Tocando a música
        • Configuraçãoes do Amplificador
        • Acordes Introdução
        • Tocando Introdução
        • Ensinando Intro + Riff 1
        • Dicas Estrofe
        • Tocando Primeira Estrofe
        • Equipamentos / Erros de Gravação
        OK