Cifra Club

Aprenda

Screaming Night Hog

Steppenwolf

Cifra: Principal (violão e guitarra)
tom: G
Îò: for * Êîìó: Òåìà: New TabsÄàòà: 13 èþëÿ 2000 ã. 18:28 Tabbed by Andrew Graham.  
Tabbed by: Andrew Graham


Fig 1.
:----------------------------------:
:-7-10-10-10-----------------------:
:------------9p7---7b-9-7-9b-9p7---:
:----------------9---------------9-:
:----------------------------------:
:----------------------------------:

Fig 2.
:---------------------------:
:-------3-------------(3)---:
:---2------2--4-2-----------:
:-4---4-----------4p2-------:
:----------------------5----:
:---------------------------:
:                           :
:---------------------------:
:---------------------------:
:---2---4-----2-------------:
:-4---4----4----4p2p0-------:
:----------------------2----:
:---------------------------:

Fig 3.
:----0--------------------------7----:
:----3----9b----/7--9--9-------------:
:-4--2----------/7--9--9-----/7---7--:
:-4--0-------------------------------:
:-2----------------------------------:
:------------------------------------:

Interlude (after Fig 2)
:----------------------------------------------:
:----------------------------------------------:
:----2---4--9-7---------------4--4b--2-4---4---:
:--4---4----9-7-9-----------4------------------:
:-----------7-5-9-------0-2--------------2-----:
:---------------7---0-3------------------------:
                                  16x
:--------------------------------:---:-------------:
:--------------------------------:---:-3-5-3-------:
:-2---------------4--------------:-4-:-------4p2h4-:
:----4p2-4------4--------4--2p0--:---:-------------:
:----------5--2------0-2--------2:---:-------------:
:--------------------------------:---:-------------: :: Ultimate Guitar Archive :: http://* To: *Subject: New TabsX-From: * Tabbed by Andrew Graham.  
Tabbed by: Andrew Graham


Fig 1.
:----------------------------------:
:-7-10-10-10-----------------------:
:------------9p7---7b-9-7-9b-9p7---:
:----------------9---------------9-:
:----------------------------------:
:----------------------------------:

Fig 2.
:---------------------------:
:-------3-------------(3)---:
:---2------2--4-2-----------:
:-4---4-----------4p2-------:
:----------------------5----:
:---------------------------:
:                           :
:---------------------------:
:---------------------------:
:---2---4-----2-------------:
:-4---4----4----4p2p0-------:
:----------------------2----:
:---------------------------:

Fig 3.
:----0--------------------------7----:
:----3----9b----/7--9--9-------------:
:-4--2----------/7--9--9-----/7---7--:
:-4--0-------------------------------:
:-2----------------------------------:
:------------------------------------:

Interlude (after Fig 2)
:----------------------------------------------:
:----------------------------------------------:
:----2---4--9-7---------------4--4b--2-4---4---:
:--4---4----9-7-9-----------4------------------:
:-----------7-5-9-------0-2--------------2-----:
:---------------7---0-3------------------------:
                                  16x
:--------------------------------:---:-------------:
:--------------------------------:---:-3-5-3-------:
:-2---------------4--------------:-4-:-------4p2h4-:
:----4p2-4------4--------4--2p0--:---:-------------:
:----------5--2------0-2--------2:---:-------------:
:--------------------------------:---:-------------: :: Ultimate Guitar Archive :: http://* To: *Subject: New TabsX-From: * Tabbed by Andrew Graham.  
Tabbed by: Andrew Graham


Fig 1.
:----------------------------------:
:-7-10-10-10-----------------------:
:------------9p7---7b-9-7-9b-9p7---:
:----------------9---------------9-:
:----------------------------------:
:----------------------------------:

Fig 2.
:---------------------------:
:-------3-------------(3)---:
:---2------2--4-2-----------:
:-4---4-----------4p2-------:
:----------------------5----:
:---------------------------:
:                           :
:---------------------------:
:---------------------------:
:---2---4-----2-------------:
:-4---4----4----4p2p0-------:
:----------------------2----:
:---------------------------:

Fig 3.
:----0--------------------------7----:
:----3----9b----/7--9--9-------------:
:-4--2----------/7--9--9-----/7---7--:
:-4--0-------------------------------:
:-2----------------------------------:
:------------------------------------:

Interlude (after Fig 2)
:----------------------------------------------:
:----------------------------------------------:
:----2---4--9-7---------------4--4b--2-4---4---:
:--4---4----9-7-9-----------4------------------:
:-----------7-5-9-------0-2--------------2-----:
:---------------7---0-3------------------------:
                                  16x
:--------------------------------:---:-------------:
:--------------------------------:---:-3-5-3-------:
:-2---------------4--------------:-4-:-------4p2h4-:
:----4p2-4------4--------4--2p0--:---:-------------:
:----------5--2------0-2--------2:---:-------------:
:--------------------------------:---:-------------: :: Ultimate Guitar Archive :: http://* To: *Subject: New TabsX-From: * Tabbed by Andrew Graham.  
Tabbed by: Andrew Graham


Fig 1.
:----------------------------------:
:-7-10-10-10-----------------------:
:------------9p7---7b-9-7-9b-9p7---:
:----------------9---------------9-:
:----------------------------------:
:----------------------------------:

Fig 2.
:---------------------------:
:-------3-------------(3)---:
:---2------2--4-2-----------:
:-4---4-----------4p2-------:
:----------------------5----:
:---------------------------:
:                           :
:---------------------------:
:---------------------------:
:---2---4-----2-------------:
:-4---4----4----4p2p0-------:
:----------------------2----:
:---------------------------:

Fig 3.
:----0--------------------------7----:
:----3----9b----/7--9--9-------------:
:-4--2----------/7--9--9-----/7---7--:
:-4--0-------------------------------:
:-2----------------------------------:
:------------------------------------:

Interlude (after Fig 2)
:----------------------------------------------:
:----------------------------------------------:
:----2---4--9-7---------------4--4b--2-4---4---:
:--4---4----9-7-9-----------4------------------:
:-----------7-5-9-------0-2--------------2-----:
:---------------7---0-3------------------------:
                                  16x
:--------------------------------:---:-------------:
:--------------------------------:---:-3-5-3-------:
:-2---------------4--------------:-4-:-------4p2h4-:
:----4p2-4------4--------4--2p0--:---:-------------:
:----------5--2------0-2--------2:---:-------------:
:--------------------------------:---:-------------: :: Ultimate Guitar Archive :: http://* To: *Subject: New TabsX-From: * Tabbed by Andrew Graham.  
Tabbed by: Andrew Graham


Fig 1.
:----------------------------------:
:-7-10-10-10-----------------------:
:------------9p7---7b-9-7-9b-9p7---:
:----------------9---------------9-:
:----------------------------------:
:----------------------------------:

Fig 2.
:---------------------------:
:-------3-------------(3)---:
:---2------2--4-2-----------:
:-4---4-----------4p2-------:
:----------------------5----:
:---------------------------:
:                           :
:---------------------------:
:---------------------------:
:---2---4-----2-------------:
:-4---4----4----4p2p0-------:
:----------------------2----:
:---------------------------:

Fig 3.
:----0--------------------------7----:
:----3----9b----/7--9--9-------------:
:-4--2----------/7--9--9-----/7---7--:
:-4--0-------------------------------:
:-2----------------------------------:
:------------------------------------:

Interlude (after Fig 2)
:----------------------------------------------:
:----------------------------------------------:
:----2---4--9-7---------------4--4b--2-4---4---:
:--4---4----9-7-9-----------4------------------:
:-----------7-5-9-------0-2--------------2-----:
:---------------7---0-3------------------------:
                                  16x
:--------------------------------:---:-------------:
:--------------------------------:---:-3-5-3-------:
:-2---------------4--------------:-4-:-------4p2h4-:
:----4p2-4------4--------4--2p0--:---:-------------:
:----------5--2------0-2--------2:---:-------------:
:--------------------------------:---:-------------: :: Ultimate Guitar Archive :: http://* 
Composição de John Kay
738 exibições
    • ½ Tom
    • A
    • Bb
    • B
    • C
    • Db
    • D
    • Eb
    • E
    • F
    • F#
    • G
    • Ab
  • Adicionar à lista

    0 comentários

    Ver todos os comentários

    Conseguiu tocar?

    0 Tocaram 0 Ainda não

    Grave um vídeo tocando Screaming Night Hog e nos envie!

    00:00 / 00:00
    outros vídeos desta música
    repetir qualidade Automático
    Outros vídeos desta música
    00:00 / 00:00
    Automático

    Cifra Club Pro

    Aproveite o Cifra Club com benefícios exclusivos e sem anúncios
    Cifra Club Pro
    Aproveite o Cifra Club com benefícios exclusivos e sem anúncios
    OK