Cifra Club

Aprenda

Erotic Nightmares

Steve Vai

Cifra: Principal (violão e guitarra)
tom: G
Gtr I (E A D G B E) - 'Gtr1'
Gtr II (E A D G B E) - 'Gtr2'
Gtr III (E A D G B E) - 'Gtr3'
Gtr IV (E A D G B E) - 'Gtr4'
Gtr V (E A D G B E) - 'Sitar'
Gtr VI (E A D G B E) - 'Clean 2'

   Intro
    Moderately Q=112
    A5 N.C.      A5      N.C.           A5N.C.  A5N.C.G5  D5  A5
   4/4
    Gtr I
       PM------|         PM| ~  PM----|   PM--|   PM|
    E  S S S S S S +S  S S S E  S S   S S S S S S S S Q   E.  S  3x
||----------------------------------|----------------------------||
||o---------------------------------|-----------------3---3-----o||
||--2------------2-(2)-2------------|---2-------2-----0---2---2--||
||--2------------2-(2)-2------------|---2-------2-----0---0---2--||
||o-0------------0-(0)-0------------|---0-------0-----x-------0-o||
||-----3-2-3-0-3---------3-2-3--2-3-|-3---3-2-3---3-2-3----------||


  A5 N.C.      A5      N.C.           A5N.C.  A5N.C.G5  D5  A5
     PM------|         PM| ~  PM----|   PM--|   PM|
  E  S S S S S S +S  S S S E  S S   S S S S S S S S Q   E.  S
|---------------------------------|----------------------------||
|---------------------------------|-----------------3---3------||
|-2------------2-(2)-2------------|---2-------2-----0---2---2--||
|-2------------2-(2)-2------------|---2-------2-----0---0---2--||
|-0------------0-(0)-0------------|---0-------0-----x-------0--||
|----3-2-3-0-3---------3-2-3--2-3-|-3---3-2-3---3-2-3----------||


 first part
  E5
  Gtr II
         \6______/
  Q a a  Q      +Q        +E    E
|-----------------------------------|
|-----------------------------------|
|-------[9]----([9])------(9)-------|
|-----x-----------------------------|
|---x-------------------------------|
|-----------------------------------|
|
| Gtr III
|        \6______/
| Q a a  Q      +Q        +E    E
|-----------------------------------|
|-----------------------------------|
|-------[9]----([9])------(9)-------|
|-----x-----------------------------|
|---x-------------------------------|
|-----------------------------------|
|
| Gtr I
| H                  +Q    E   +E
|-----------------------------------|
|-----------------------------------|
|-----------------------------------|
|-2------------------(2)---2---(2)--|
|-2------------------(2)---2---(2)S=|
|-0------------------(0)---0---(0)--|


      Asus4/D   A/C#          Asus4/D   A/C#
       \1__________\2_____\6________________/
  a a  Q.         +E     +H                 a
|----------------------------------------------|
|----------------------------------------------|
|-----[7]---------(7)----(7)---------------(7)-|
|---x------------------------------------------|
|-x--------------------------------------------|
|----------------------------------------------|
|
|                      W
|----------------------------------------------|
|----------------------------------------------|
|----------------------------------------------|
|----------------------------------------------|
|----------------------------------------------|
|----------------------------------------------|
|
|      PM     PM                  PM|
|      E    S S S  E      S   S S S S S E   S
|-----------5---5---------------5-----5--------|
|-----------5---5---------------5-----5--------|
|----------------------------------------------|
|----------------------------------------------|
|------5------5----4s=====2s==5---5-5---4---4\-|
|----------------------------------------------|


  E5
                            W
|-----------------------------------------------------|
|-----------------------------------------------------|
|-----------------------------------------------------|
|-----------------------------------------------------|
|-----------------------------------------------------|
|-----------------------------------------------------|
|
|  S  S  S  S  S  S  S  S  +S   S   S   S  S  S  a E
|-19-16-----------------------------------------------|
|-------17s12-12---------------(7)s(9)----------------|
|----------------11-13--7--(7)--4s==6--(7)------------|
|---------------------------------------7-------------|
|------------------------------------------7s=9-------|
|------------------------------------------------9s7--|
|
|  H                   +Q           E        +E
|-----------------------------------------------------|
|-----------------------------------------------------|
|-----------------------------------------------------|
|--2-------------------(2)----------2--------(2)------|
|--2-------------------(2)----------2--------(2)S=====|
|--0-------------------(0)----------0--------(0)------|


          Asus4/D                           A/C#              Asus4/D             A/C#
    S      +S    S    S      +E      S       +S   +S    S      +E      S      +E.
|-[19]b21r(19)-[19]------------------------------------------------------------------------|
|-------------------[20]b22r(20)-----------------------------------------------------------|
|----------------------------------[21]b23==(21)r(21)-[18]b20r(18)---[19]b21r(19)----------|
|------------------------------------------------------------------------------------------|
|------------------------------------------------------------------------------------------|
|------------------------------------------------------------------------------------------|
|
|   ~~~~~~~~
|  +H                                                   H
|------------------------------------------------------------------------------------------|
|------------------------------------------------------------------------------------------|
|------------------------------------------------------------------------------------------|
|------------------------------------------------------------------------------------------|
|------------------------------------------------------------------------------------------|
|--(7)-------------------------------------------------------------------------------------|
|
|           PM                   PM                                    PM----|
|           E                 S  S   S        E         S       S  S   S       S  S E  S
|-----------------------------5------5-----------------------------5--------------5--------|
|-----------------------------5------5-----------------------------5--------------5--------|
|------------------------------------------------------------------------------------------|
|------------------------------------------------------------------------------------------|
|-----------5--------------------5------------4s========2s======5------5-------5----4--4\--|
|------------------------------------------------------------------------------------------|


  E5
   H.                                        +E      +E
|-19----------------------------------------(19)----(19)\-|
|-17----------------------------------------(17)----(17)\-|
|---------------------------------------------------------|
|---------------------------------------------------------|
|---------------------------------------------------------|
|---------------------------------------------------------|
|
|  a S S S S S  S S  a   S  +S  S  E  a  E        E
|--7s9s7-7-7-x-12-x-12s=14-(14)-x-10-17s19-------17-------|
|--7s9s7-5-5---10---10s=12-(12)---10-17s19-------15-------|
|---------------------------------------------------------|
|---------------------------------------------------------|
|---------------------------------------------------------|
|---------------------------------------------------------|
|
|  H                +Q          E       +E
|---------------------------------------------------------|
|---------------------------------------------------------|
|---------------------------------------------------------|
|--2----------------(2)---------2-------(2)---------------|
|--2----------------(2)---------2-------(2)S==============|
|--0----------------(0)---------0-------(0)---------------|

       Asus4/D    Asus4/C#  Asus4/D Asus4/C#
        |-3-| |-3-|     |-3-| |-3-|     |-3-| |-3--|     |-3--|  |-3--|
    a   S S S S S S  a  S S S S S S  a  S S S S  S S  a  S  S S  S S  S
|--12s=19-0-0-0-0-0-12s19-0-0-0-0-0-12s19-0-0-0--0-0-12s19--0-0--0-0--0-|
|-----------------------------------------------------------------------|
|-----------------------------------------------------------------------|
|-----------------------------------------------------------------------|
|-----------------------------------------------------------------------|
|-----------------------------------------------------------------------|
|
|  +Q             Q             Q    S                      S    S    S
|-(17)---------------------------------------------------------------14-|
|-(15)----------------------------------------------------------15------|
|----------------------------------------------------------16-----------|
|-----------------------------------------------------------------------|
|-----------------------------------------------------------------------|
|-----------------------------------------------------------------------|
|
|       PM      PM              PM|
|       E     S S S  E    S S S S S  S  E     S
|-------------5---5-----------5------5----------------------------------|
|-------------5---5-----------5------5----------------------------------|
|-----------------------------------------------------------------------|
|-----------------------------------------------------------------------|
|-------5-------5----4s===2s5---5-5-----4-----4\------------------------|
|-----------------------------------------------------------------------|


  E5
   E     E      Q                H
|-(0)------------------------------------------------|
|-(0)------------------------------------------------|
|----------------------------------------------------|
|----------------------------------------------------|
|----------------------------------------------------|
|----------------------------------------------------|
|
|             |-3-|  |-3-| |--3--| |-3-| |-3-| |-3-|
|  E.   +S    S S S  S S S S  S  S S S S S S S S S S
|-17---(17)\-10p9p7----------------------------------|
|-------------------10p9p7---------------------------|
|--------------------------9p=7p=6-------------------|
|----------------------------------9p7p6-------------|
|----------------------------------------9p7p5-------|
|----------------------------------------------9p7p5s|
|
|  H.                        +E.             S
|----------------------------------------------------|
|----------------------------------------------------|
|----------------------------------------------------|
|--2-------------------------(2)---------------------|
|--2-------------------------(2)-------------2s======|
|--0-------------------------(0)---------------------|


  Asus4/D       A/C#    Gsus4/C     G/B
                         W
|-----------------------------------------||
|-----------------------------------------||
|-----------------------------------------||
|-----------------------------------------||
|-----------------------------------------||
|-----------------------------------------||
|
|         \4.5___________/
|  ~~
|  Q      E       +E    +H
|-----------------------------------------||
|-----------------------------------------||
|-----------------------------------------||
|---------0-------(0)---(0)---------------||
|-----------------------------------------||
|-10--------------------------------------||
|
|  PM   PM                    PM|      PM
|  E  S S S     E     S  S  S S S S E  S
|-----5---5-----------------3-----3-------||
|-----5---5-----------------3-----3-------||
|-----------------------------------------||
|-----------------------------------------||
|--5----5-------4-----2s=3----3-3---2-----||
|--------------------------------------0--||


 second part
  F5                 C5/G  F5                        C5
  Gtr II
        \1___/         \1____/                   \1_____
  S E.  a    E     E   a    +E.      S  +S   S  +E
|-------------------------------------------10-(10)----|
|-----------------------------------10-(10)------------|
|------------------------------------------------------|
|--------------------/12---(12)------------------------|
|-----------10----10-----------------------------------|
|-x-1s==8---(8)----------------------------------------|
|
| Gtr I
| PM--------------|          PM-------------------------
| S S S S    S  S  S   S     S  S S  S   S   S   S   S
|------------------------------------------------------|
|------------------------------------------------------|
|----------------------5-------------------------------|
|----------------------5-----------------------------5s|
|-3-3-3-3----3--3--3---------3--3-3--3---3---3---3---3s|
|-1-1-1-1----1--1--1---------1--1-1--1---1---1---1-----|


  D5                    D5/A    D5                 D5/A
        /            \1
                                    ~~~~~~~~~~
    a  +Q.          +S   S  +E     +E     +E     S S
|-/19-(19)---------(19)-17-(17)---(17)---(17)---17-5s=|
|-----------------------------------------------------|
|-----------------------------------------------------|
|-----------------------------------------------------|
|-----------------------------------------------------|
|-----------------------------------------------------|
|
|----------|   PM-------------------------------|
|   S   S  S S S S   S   S   S  S   S  S   S  S  S S
|-----------------------------------------------------|
|-----------------------------------------------------|
|------------------------7-------------------------7--|
|---7---7--7-7-7-7---7---7------7---7--7---7--7--7-7--|
|---5---5--5-5-5-5---5----------5---5--5---5--5--5----|
|-----------------------------------------------------|

           F5                C5/G      F5                    C5
                     |--3--|         |3-|    |-3--|  |--3--| |--3--|
   E     T  T  T  T  S  S  S  +E     S  E    S S  S  S  S  S S  S  S
|-13p===12p10--------------------------------------------------------|
|-------------13p12p10-----------------------------------------------|
|----------------------12p10-(10)\--14s12---11s9h11-11h12p11p9-------|
|--------------------------------------------------------------12p10-|
|--------------------------------------------------------------------|
|--------------------------------------------------------------------|
|
|           PM------------|             PM----------------------------
| +S        S  S  S  S  S  S   S        S S  S S  S  S  S    S
|--------------------------------------------------------------------|
|--------------------------------------------------------------------|
|-(7)\-------------------------5-------------------------------------|
|-(7)\-------------------------5-----------------------------5s======|
|-----------3--3--3--3--3--3------------3-3--3-3--3--3--3----3s======|
|-----------1--1--1--1--1--1------------1-1--1-1--1--1--1------------|


  D5                D5/A          D5      C5/GD5/A
                            \1.5________________\7   /
   Q         E.      +S    +Q.                 +E    a
|-------------------------------------------------------|
|-------------------------------------------------------|
|-<7>-------<2>-----(<2>)-(<2>)---------------(<2>)-(2)-|
|--0----------------------------------------------------|
|-------------------------------------------------------|
|-------------------------------------------------------|
|
|-----------------|               PM----|
|  S  S S S  S  S S   S     S     S S S S S S   S
|-------------------------------------------------------|
|-------------------------------------------------------|
|---------------------7-------------------5-----7-------|
|--7--7-7-7--7--7-7---7-----------7-7-7-7-5-----7-------|
|--5--5-5-5--5--5-5---------------5-5-5-5---------------|
|-------------------------------------------------------|


       F5                C5F5                C5
   E.       S  +E     E     Q         Q
|-12---------------------------------<5>-------|
|----------10-(10)---<5>-----------------------|
|---------------------------0------------------|
|--------------------------<5>-----------------|
|----------------------------------------------|
|----------------------------------------------|
|
|      PM------------|         PM---------------
| +S   S S  S   S  S  S  S  S  S S S  S  S S S
|----------------------------------------------|
|----------------------------------------------|
|-(7)\-------------------5---------------------|
|-(7)\-------------------5-------------------5s|
|------3-3--3---3--3--3--------3-3-3--3--3-3-3s|
|------1-1--1---1--1--1--------1-1-1--1--1-1---|


  D5                        D5/A
    \2.5______\1_____/
   +E        +Q      E         +Q.              E
|-(<5>)-----(<5>)-------------------------------5S==|
|---------------------------------------------------|
|-------------------<7>-------(<7>)-----------------|
|--------------------5---------(5)------------------|
|---------------------------------------------------|
|---------------------------------------------------|
|
|-------------------------|         PM|    PM---|
|   S     S   S   S  S  S S S   S   S S S  S  S S S
|---------------------------------------------------|
|---------------------------------------------------|
|---------------------------7-----------7---------7-|
|---7-----7---7---7--7--7-7-7-----------7---------7-|
|---5-----5---5---5--5--5-5---------5-5---(5)-5-5---|
|---------------------------------------------------|

          F5                                  C5/G        F5
                             |--3--|              |--3--|              |--3--|
   T    T  T  T  T  T  T  T  S  S  S  T  T  T  T  S  S  S  T  T  T  T  S  S  S  T  T  T  T
|-17h==20p17----17---------------------------------------------------------------------------|
|------------20----20-18-17-18-17----17------------------------------------------------------|
|---------------------------------19----19-17s16-17-16-14-16-14------------------------------|
|---------------------------------------------------------------17-15-17-15-14-15-14---------|
|------------------------------------------------------------------------------------17-15---|
|--------------------------------------------------------------------------------------------|
|
|          PM---------------------------|                  PM------------------------------|
| +S       S     S     S     S     S     S     S     S     S     S     S     S     S     S S
|--------------------------------------------------------------------------------------------|
|--------------------------------------------------------------------------------------------|
|-(7)\-----------------------------------------5---------------------------------------------|
|-(7)\-----------------------------------------5---------------------------------------------|
|----------3-----3-----3-----3-----3-----3-----------------3-----3-----3-----3-----3-----3-3-|
|----------1-----1-----1-----1-----1-----1-----------------1-----1-----1-----1-----1-----1-1-|


  E5
   E.   +S       +Q     S  S  S  S   S  +S   E
|------------------------------------------------||
|------------------------------------------------||
|-----------------------------------14-(14)\-----||
|------------------------------------------------||
|-17---(17)b19==(17)---17-17-17-17r--------------||
|------------------------------------------------||
|
|  H                            +E   S   E.    E
|------------------------------------------------||
|------------------------------------------------||
|--9----------------------------(9)------9-------||
|--9----------------------------(9)------9-------||
|--7----------------------------(7)------7-------||
|--0----------------------------(0)--0-----------||


 3rd part
  A5     N.C.          A5          N.C.
    S  S  S  S  S  S S   S  +S   S  S  S  S  S  S  S
|-/14-14-14-14---------/14-(14)-14-14-14-14-14-14-14--|
|-/14-14-14-14-14-14---/14-(14)-14-14-14-14-14-14-14--|
|-/14-14-14-14-14-14---/14-(14)-14-14-14-14-14-14-14--|
|-----------------------------------------------------|
|-----------------------------------------------------|
|-----------------------------------------------------|
|
|         PM---------|              PM|   ~~    PM|
|   E     S  S  S  S S   S  +S   S  S  S  E     S  S
|-----------------------------------------------------|
|-----------------------------------------------------|
|---2--------------------2--(2)--2--------------------|
|---2--------------------2--(2)--2--------------------|
|---0--------------------0--(0)--0--------------------|
|---------3--2--3--0-3--------------3--2--3-----2--3--|


     A5 N.C.     A5 N.C.  G5             D5     A5
   S  S  S  S  S  S  S  S  S  S  S  S  S  S   S  S
|----------------10----------10-10-10----10--10-----|
|-12-12-12-12-12-10-12-12-12-10-10-10-12-10--10-12/-|
|-12-12-12-12-12----12-12-12----------12------------|
|---------------------------------------------------|
|---------------------------------------------------|
|---------------------------------------------------|
|
|  PM    PM---|      PM|
|  S  S  S  S  S  S  S  S  Q              E.     S
|---------------------------------------------------|
|--------------------------3--------------3---------|
|-----2-----------2--------0--------------2------2--|
|-----2-----------2--------0--------------0------2--|
|-----0-----------0--------x---------------------0--|
|--3-----3--2--3-----3--2--3------------------------|


        N.C.           A5        N.C.
   S  S  S  S  S  S  S  S  S   S  S  S  S  S  S  S
|-15-15-15-15-15-15-15-15-15--15-15-15-15-15-15s17-|
|-17-17-17-17-17-17-17-17-17--17-17-17-17-17-17s19-|
|--------------------------------------------------|
|--------------------------------------------------|
|--------------------------------------------------|
|--------------------------------------------------|
|
|        PM---------|             PM|   ~~    PM|
|  E     S  S  S  S  S  S +S   S  S  S  E     S  S
|--------------------------------------------------|
|--------------------------------------------------|
|--2--------------------2-(2)--2-------------------|
|--2--------------------2-(2)--2-------------------|
|--0--------------------0-(0)--0-------------------|
|--------3--2--3--0--3------------3--2--3-----2--3-|


     A5 N.C.     A5 N.C.  G5         D5         A5
   S  S  S  S  S  S  S  S   Q          Q
|-17-17-17-17-17-17----17-------------------------||
|-19-19-17-17-19-19-17----[20]b22----[20]b22======||
|-------------------------------------------------||
|-------------------------------------------------||
|-------------------------------------------------||
|-------------------------------------------------||
|
| Gtr III
|  H                    Q          E          E
|-------------------------------------------------||
|-------------------------------------------------||
|-------------------------------------------------||
|-------------------------------------------------||
|---------------------------------------------7s==||
|-------------------------------------------------||
|
| Gtr I
|  PM    PM---|      PM|
|  S  S  S  S  S  S  S  S   Q          E.       S
|-------------------------------------------------||
|---------------------------3----------3----------||
|-----2-----------2---------0----------2--------2-||
|-----2-----------2---------0----------0--------2-||
|-----0-----------0---------x-------------------0-||
|--3-----3--2--3-----3--2---3---------------------||


 4th part
  E5
    \7             \0.5___/
   +H.             a     +E      +E
|-------------------------------------------|
|-(20)r-------------------------------------|
|-------------------------------------------|
|------------------0-----(0)-----(0)--------|
|-------------------------------------------|
|-------------------------------------------|
|
|             \7
|   e    E    H               Q
|-------------------------------------------|
|-------------------------------------------|
|------------12-----------------------------|
|-------------------------------------------|
|---0---------------------------------------|
|-------------------------------------------|
|
|   H                        +Q      E +E
|-------------------------------------------|
|-------------------------------------------|
|-------------------------------------------|
|---2------------------------(2)-----2-(2)--|
|---2------------------------(2)-----2-(2)S=|
|---0------------------------(0)-----0-(0)--|


  Asus4/D   A/C# Asus4/D              A/C#
   H              +Q             +E.     T   T
|---------------------------------------10h=14-|
|----------------------------------------------|
|-<5>------------(<5>)----------(<5>)----------|
|-(0)-------------(0)------------(0)-----------|
|----------------------------------------------|
|----------------------------------------------|
|
|     Q      Q          +Q.              E
|-----------22---------(22)--------------------|
|-----------22---------(22)--------------------|
|----------------------------------------------|
|----------------------------------------------|
|----------------------------------------------|
|----------------------------------------------|
|
|  PM   PM                  PM|
|  E  S S S  E S   S     S  S S   S   E  S
|-----5---5--------------5--------5------------|
|-----5---5--------------5--------5------------|
|----------------------------------------------|
|----------------------------------------------|
|--5----5----4s2s==5--------5-5-------4--4\----|
|----------------------------------------------|


  E5
   T               T           T     T         T      
   T  T  T      T  T  T  T  T  T  T  T  T      T  T   
|-16p14p12p====10h19p12h14h16h21p16h19p16h====24p12h==
|-----------------------------------------------------
|-----------------------------------------------------
|-----------------------------------------------------
|-----------------------------------------------------
|-----------------------------------------------------
   
          T      T     T           T         T     T               
    T  T  T   T  T  T  T  T  T  T  T      T  T  T  T      T  T  T  
  =14h16h21p=16h19p16h24p12h14h16h21p====16h19p16h24p====12h14h16-|
  ----------------------------------------------------------------|
  ----------------------------------------------------------------|
  ----------------------------------------------------------------|
  ----------------------------------------------------------------|
  ----------------------------------------------------------------|

|        T                              T                    
|  E     E               E              E         E          
|--------9tr12--------------------------9tr12----12tr9-------
|------------------------------------------------------------
|------------------------------------------------------------
|------------------------------------------------------------
|------------------------------------------------------------
|------------------------------------------------------------

                            T               T               
       E                    E               E               
  --------------------------7tr12-----------9tr12----------|
  ---------------------------------------------------------|
  ---------------------------------------------------------|
  ---------------------------------------------------------|
  ---------------------------------------------------------|
  ---------------------------------------------------------|

|  H                                                         +Q          
|------------------------------------------------------------------------
|------------------------------------------------------------------------
|------------------------------------------------------------------------
|--2---------------------------------------------------------(2)---------
|--2---------------------------------------------------------(2)---------
|--0---------------------------------------------------------(0)---------

                E              +E               
  ---------------------------------------------|
  ---------------------------------------------|
  ---------------------------------------------|
  --------------2--------------(2)-------------|
  --------------2--------------(2)S============|
  --------------0--------------(0)-------------|


  Asus4/D                               A/C#                  Asus4/D 
   T               T           T               T               T      
   T      T  T  T  T  T  T  T  T  T      T  T  T  T      T  T  T  T   
|-24p====16p14p12-24p16p14p12-24p16p====14p12-24p16p====14p12-24p16p==
|---------------------------------------------------------------------
|---------------------------------------------------------------------
|---------------------------------------------------------------------
|---------------------------------------------------------------------
|---------------------------------------------------------------------

                                    A/C#                
           T                   T           T            
     T  T  T      T  T  T      T  T  T  T  T  T  T   T  
  ==14p12-24p====16p14p12-----24p16p14p12-24p16p14p=12-|
  -----------------------------------------------------|
  -----------------------------------------------------|
  -----------------------------------------------------|
  -----------------------------------------------------|
  -----------------------------------------------------|
  

|  T                              T               T               T       
|  E               E              E               E               E       
|--7tr12--------------------------5tr12-----------4tr12-----------5tr12---
|-------------------------------------------------------------------------
|-------------------------------------------------------------------------
|-------------------------------------------------------------------------
|-------------------------------------------------------------------------
|-------------------------------------------------------------------------

       T            T            T                  
       E            E            a  E               
  -----4tr12--------2tr12--------2p=0--------------|
  -------------------------------------------------|
  -------------------------------------------------|
  -------------------------------------------------|
  -------------------------------------------------|
  -------------------------------------------------|



|
|  PM                    PM                                           
|  E               S     S     S         E               S     S      
|------------------5-----------5--------------------------------------
|------------------5-----------5--------------------------------------
|---------------------------------------------------------------------
|---------------------------------------------------------------------
|--5---------------------5---------------4s==============2s====5------
|---------------------------------------------------------------------

           PM-------|                                   
     S     S         S         S     E           S      
  ---5-------------------------5-----------------------|
  ---5-------------------------5-----------------------|
  -----------------------------------------------------|
  -----------------------------------------------------|
  ---------5---------5---------------4-----------4\----|
  -----------------------------------------------------|

  E5                                   Asus4/D     A/C#    Asus4/D   A/C#
               ~~           ~~~~~~~~~~~~~~
   H       +S  E.   E       E          W
|--0-------(0)-x/-----------x/-------|-x\----------------------------------|
|------------------------------------|-x\----------------------------------|
|------------------------------------|-------------------------------------|
|------------------------------------|-------------------------------------|
|------------------------------------|-------------------------------------|
|------------------------------------|-------------------------------------|
|
|                                                     ~~
| +H.              +S   S   S      S   S   S   S   S  H.
|-(0)--------------(0)--x---x------x-|-x---x---x---x--x\-------------------|
|------------------------------------|-------------------------------------|
|------------------------------------|-------------------------------------|
|------------------------------------|-------------------------------------|
|------------------------------------|-------------------------------------|
|------------------------------------|-------------------------------------|
|
|                                      PM      PM              PM|
|  H               +Q     E    +E      E     S S S E     S S S S S S E  S
|------------------------------------|-------5---5-----------5-----5-------|
|------------------------------------|-------5---5-----------5-----5-------|
|------------------------------------|-------------------------------------|
|--2---------------(2)----2----(2)---|-------------------------------------|
|--2---------------(2)----2----(2)S==|=5-------5---4s====2s5---5-5---4--4\-|
|--0---------------(0)----0----(0)---|-------------------------------------|


  E5
  ~~
             |---3---|
  Q       E  S    S  S     S  S      S   S   S  S   E
|---------------------------------------------------------|
|----------------12h13h===14p13-----12h=13h=14p13p=12-----|
|-x\--------13--------------------------------------------|
|-x\------------------------------------------------------|
|---------------------------------------------------------|
|---------------------------------------------------------|
|
|     /4_____\4______/4.5_____\4.5_______/1_____\1_________
| Q   E      E       E        S          S      Q
|---------------------------------------------------------|
|-----xs=====xh======xs=======xh=========xs=====xp========|
|---------------------------------------------------------|
|---------------------------------------------------------|
|---------------------------------------------------------|
|---------------------------------------------------------|
|
| H                                 +Q              E +E
|---------------------------------------------------------|
|---------------------------------------------------------|
|---------------------------------------------------------|
|-2---------------------------------(2)-------------2-(2)-|
|-2---------------------------------(2)-------------2-(2)S|
|-0---------------------------------(0)-------------0-(0)-|


  Asus4/D               A/C#            Asus4/D                 A/C#
   S   S  S    S  Q            Q                          Q
|-----------------------------------------------------------------------||
|-14p=13p12---13h14\---------/14------------------------/22-------------||
|-----------------------------------------------------------------------||
|-----------------------------------------------------------------------||
|-----------------------------------------------------------------------||
|-----------------------------------------------------------------------||
|
|  /7_____\7______/7____\7_____/1.75____\1.75____/1.75______\5____/
|  a      E       E     E      E        E        E          E     E
|-----------------------------------------------------------------------||
|--xs=====xh======xs====xp=====xs=======xs=======xs=========xs====x-----||
|-----------------------------------------------------------------------||
|-----------------------------------------------------------------------||
|-----------------------------------------------------------------------||
|-----------------------------------------------------------------------||
|
|  PM             PM                             PM-----|
|  E           S  S   S E             S S      S S        S S   E    S
|--------------5------5------------------------5------------5-----------||
|--------------5------5------------------------5------------5-----------||
|-----------------------------------------------------------------------||
|-----------------------------------------------------------------------||
|--5--------------5-----4s============2s5--------5--------5-----4----4\-||
|-----------------------------------------------------------------------||


 Reverse Guitar Solo
  F5                    C   F5          C5
  Gtr II
    \2.5___/
  E a     +E    +E.   S S S S S S S e
|-----------------------------------------|
|-----------------------------------------|
|-----------------------------------------|
|---------------------------------3-5-----|
|-------------------------3-5-3-5---------|
|---1-----(1)---(1)---3s5-----------------|
|
| Gtr I
| PM------------------|     PM-------------
| S S      S  S  S  S S S S S S S S S S S
|-----------------------------------------|
|-----------------------5-----------------|
|-----------------------5-----------------|
|-----------------------5---------------5s|
|-3-3------3--3--3--3-3-3---3-3-3-3-3-3-3s|
|-1-1------1--1--1--1-1-----1-1-1-1-1-1---|

  D5            D5/A      D           C5/G  D   F5/C
          |-3-|
  E   E   E E E S     +S  +S      +S  +S  S S S
|-------------------------------------------------|
|-------------------------------------------------|
|-----------5-7s9b10==(9)r(9)b10==(9)r(9)s7-5s7---|
|-3---5---7---------------------------------------|
|-------------------------------------------------|
|-------------------------------------------------|
|
|-------------|            PM-----|         PM|
| S S S S S S S S      S   S       S   S  S S S S
|-------------------------------------------------|
|-------------------------------------------------|
|---------------7----------------------5----------|
|-7-7-7-7-7-7-7-7----------------------5--------3-|
|-5-5-5-5-5-5-5------------5-------5--------5-5-3-|
|-------------------------------------------------|

    F5          C   F5              C5     D5            G5/AD   D/A   D   C/G
  |-3-|                                                             |-3--|
  S S S E   E   E   +S  S E +E.     +S     S S S S S S S S S S E   +E  E E
|---------------5---(5)-7-8-(8)-----(8)\-|---5---------------------------------|
|-5h6p5-----8----------------------------|-----8-7-5---------------------------|
|----------------------------------------|-----------7-5-----------------------|
|----------------------------------------|---------------7-5-7-----------------|
|----------------------------------------|---------------------5---(5)-5-7-----|
|----------------------------------------|-------------------------------------|
|
|   PM--------|      PM--------------------------------|     PM|       PM|
| S S S S S S S S S  S  S S  S  S S  S     S S S S S S S S S S S S  S  S S S
|----------------------------------------|-------------------------------------|
|---------------5------------------------|---------------8-------7---------5---|
|---------------5------------------------|---------------7-------7---------5---|
|---------------5--------------------5s==|=7-7-7-7-7-7-7-7-------7---------5---|
|---3-3-3-3-3-3-3----3--3-3--3--3-3--3s==|=5-5-5-5-5-5-5-----5-5-------5-7-----|
|---1-1-1-1-1-1------1--1-1--1--1-1------|-------------------------------------|


      F5                  C     F5                C5
  +S   S   S  S  S  S  S   S  S  S  T  T  S  S  S  E
|----------------------------------------------12-15--|
|----------------------------------12h13p12-15--------|
|----------------------------12-14--------------------|
|---------------10-12-14/-15--------------------------|
|-(7)-10/-12-10---------------------------------------|
|-----------------------------------------------------|
|
|      PM-------------|          PM--------------------
|  S   S   S  S  S  S  S   S  S  S  S  S  S  S  S  S
|-----------------------------------------------------|
|--------------------------5--------------------------|
|--------------------------5--------------------------|
|--------------------------5-----------------------5s=|
|------3---3--3--3--3--3---3-----3--3--3--3--3--3--3s=|
|------1---1--1--1--1--1---------1--1--1--1--1--1-----|

  D5
                   |--3--|  |-3--|   |--3---|
   S  E.      E    S  S  S  Q    E   E   E  E
|-17s12------12---10h12h13p12---13--12--10----|
|------------------------------------------13-|
|---------------------------------------------|
|---------------------------------------------|
|---------------------------------------------|
|---------------------------------------------|
|
|----------|
|  S  S  S S  S S  E          H
|---------------------------------------------|
|-------------7-7-----------------------------|
|-------------7-7-----------------------------|
|--7--7--7-7--7-7-----------------------------|
|--5--5--5-5--5-5-----------------------------|
|---------------------------------------------|


     F5              C     F5
                        ~~~
   S  E    S  S E.     +H
|----------------------------------------|
|-12-10----------------------------------|
|---------12s10p9------(9)---------------|
|----------------------------------------|
|----------------------------------------|
|----------------------------------------|
|
|     PM-----------|       PM----------|
|  S  S S  S  S S  S S  S  S S S S S S S
|----------------------------------------|
|--------------------5-------------------|
|--------------------5-------------------|
|--------------------5-------------------|
|-----3-3--3--3-3--3-3-----3-3-3-3-3-3-3-|
|-----1-1--1--1-1--1-------1-1-1-1-1-1-1-|

  E5
   |-3-|                          |--3--|  |--3--|
   E   S  T  T  T  T  T  T  T  T  S  S  S  S  S  S  T  T  T  T   T  T  T  T    T  T  S
|---------------------------------------------------------------17-14-16-17---16-14-17\-|
|-----------------------14-12-14-15-14-12-14-15-17-15-14-15-17--------------------------|
|-11--13-14-13-11-13-14-----------------------------------------------------------------|
|---------------------------------------------------------------------------------------|
|---------------------------------------------------------------------------------------|
|---------------------------------------------------------------------------------------|
|
|  H.                                                       +E           +E
|---------------------------------------------------------------------------------------|
|---------------------------------------------------------------------------------------|
|--9--------------------------------------------------------(9)----------(9)\-----------|
|--9--------------------------------------------------------(9)----------(9)\-----------|
|--7--------------------------------------------------------(7)----------(7)\-----------|
|--0------------------------------------------------------------------------------------|

  E7+9
    |--3--|  |--3--|  |--3--|  |--3--|  |--3--|  |--3--|
    S  S  S  S  S  S  S  S  S  S  S  S  S  S  S  S  S  S  S  +S   E
|-/24-24-24-24-24-24-24-24-24-24-24-24-24-24-24-24-24-24-24-(24)\---||
|-------------------------------------------------------------------||
|-------------------------------------------------------------------||
|-------------------------------------------------------------------||
|-------------------------------------------------------------------||
|-------------------------------------------------------------------||
|
|   |--3--|  |--3--|  |--3--|  |--3--|  |--3--|  |--3--|
|   S  S  S  S  S  S  S  S  S  S  S  S  S  S  S  S  S  S  S  +S   E
|-------------------------------------------------------------------||
|--/8--8--8--8--8--8--8--8--8--8--8--8--8--8--8--8--8--8--8--(8)\---||
|--/7--7--7--7--7--7--7--7--7--7--7--7--7--7--7--7--7--7--7--(7)\---||
|--/6--6--6--6--6--6--6--6--6--6--6--6--6--6--6--6--6--6--6--(6)\---||
|--/7--7--7--7--7--7--7--7--7--7--7--7--7--7--7--7--7--7--7--(7)\---||
|-------------------------------------------------------------------||


 Double Time feel
  A5     N.C.         A5            N.C.
                                             ~~~~~~~
   Q          S  S  S  S  S   E.        a   +Q
|------------12----------12----------------------------|
|-15b17---------15-14-15-----15b17====(15)r(15)b17-----|
|------------------------------------------------------|
|------------------------------------------------------|
|------------------------------------------------------|
|------------------------------------------------------|
|
|        PM--------|                PM|      ~~~~~~PM|
|  E     S S  S  S  S  S +S   S     S   S    E     S S
|------------------------------------------------------|
|------------------------------------------------------|
|--2-------------------2-(2)--2------------------------|
|--2-------------------2-(2)--2------------------------|
|--0-------------------0-(0)--0------------------------|
|--------3-2--3--0--3---------------3---2----3-----2-3-|


     A5 N.C.     A5 N.C.  G5                     D5         A5
   S  S  S  S  S  S  S  S  S  S  S      +S   +E      +e
|-12----------12-14p12----12----------------------------------|
|----15-14-15----------15----15-14b15==(14)-(14)----(14)r\----|
|-------------------------------------------------------------|
|-------------------------------------------------------------|
|-------------------------------------------------------------|
|-------------------------------------------------------------|
|
|  PM    PM---|      PM|
|  S  S  S  S  S  S  S  S  Q                     E.         S
|-------------------------------------------------------------|
|--------------------------3---------------------3------------|
|-----2-----------2--------0---------------------2----------2-|
|-----2-----------2--------0---------------------0----------2-|
|-----0-----------0--------x--------------------------------0-|
|--3-----3--2--3-----3--2--3----------------------------------|

  A5   N.C.                 A5             N.C.
                                         |--3--|              |--3--|
  S  S  S  S  S  E      +S   +S      S   S  S  S  T  T  T  T  S  S  S
|---14p12----12---------------------12-----------12h14p12----12-------|
|---------15----15b17==(15)r(15)b17-----15-14-15----------15----15p12-|
|---------------------------------------------------------------------|
|---------------------------------------------------------------------|
|---------------------------------------------------------------------|
|---------------------------------------------------------------------|
|
|       PM-------------|                    PM|   ~~~   PM-------------
| E     S  S  S  S       S    S     +S   S  S  S  E     S  S
|---------------------------------------------------------------------|
|---------------------------------------------------------------------|
|-2---------------------------2-----(2)--2----------------------------|
|-2---------------------------2-----(2)--2----------------------------|
|-0---------------------------0-----(0)--0----------------------------|
|-------3--2--3--0-------3------------------3--2--3-----2--3----------|


      A5N.C.          A5 N.C.       G5            D5     A5
   E.    S     +S   S  S  S     +S   S  S  S  +E      E
|------------------12---------------12----------------------|
|-15----15b17-(15)----15-14b16-(14)----14p12-(12)-----x\----|
|-----------------------------------------------------------|
|-----------------------------------------------------------|
|-----------------------------------------------------------|
|-----------------------------------------------------------|
|
|-|      PM--------|      PM---|
|  S  S  S      S   S  S  S      S   Q            E.     S
|-----------------------------------------------------------|
|------------------------------------3------------3---------|
|-----2----------------2-------------0------------2------2--|
|-----2----------------2-------------0------------0------2--|
|-----0----------------0-------------x-------------------0--|
|--3-----3------2---3-----3------2---3----------------------|


  A5          N.C.                         A5           N.C.
  Gtr II
                       |--3--|  |--3--|  |--3--|  |--3---|
   E      +E     S  S  S  S  S  S  S  S  S  S  S  S   S  S  T  T  T  T
|---------------12----------12-14-12----12-----------------12h14p12--------|
|-15b17--(15)------15-14-15----------15----15-14-12--14-15----------15-----|
|--------------------------------------------------------------------------|
|--------------------------------------------------------------------------|
|--------------------------------------------------------------------------|
|--------------------------------------------------------------------------|
|
| Gtr III
|                      |--3--|  |--3--|  |--3--|  |--3---|
|  E      +E     S  S  S  S  S  S  S  S  S  S  S  S   S  S  T  T  T  T
|---------------17----------17-19-17----17-----------------17-19-17--------|
|-20b22--(20)------20-19-20----------20----20-19-17--19-20----------20-----|
|--------------------------------------------------------------------------|
|--------------------------------------------------------------------------|
|--------------------------------------------------------------------------|
|--------------------------------------------------------------------------|
|
| Gtr I
|             PM---------------------|                   PM|   ~~~     PM|
|  E          S     S     S     S     S     S    +S   S  S  S  E       S S
|--------------------------------------------------------------------------|
|--------------------------------------------------------------------------|
|--2----------------------------------------2----(2)--2--------------------|
|--2----------------------------------------2----(2)--2--------------------|
|--0----------------------------------------0----(0)--0--------------------|
|-------------3-----2-----3-----0-----3------------------3--2--3-------2-3-|


     A5 N.C.     A5 N.C.  G5                   D5              A/D
                                                                ~~
   |--3--|  |--3--|              |--3--|               |--3--|
   S  S  S  S  S  S  T  T  T  T  S  S  S  T  T  T   T  S  S  S  E   +E
|-12----------------12h14p12----12---------------------------------------|
|----15-14-12-14-15----------15----15-14-12h14p12-----12-----------------|
|--------------------------------------------------14----14p12-14--(14)\-|
|------------------------------------------------------------------------|
|------------------------------------------------------------------------|
|------------------------------------------------------------------------|
|
|                                                               ~~
|  |--3--|  |--3--|              |--3--|               |--3--|
|  S  S  S  S  S  S  T  T  T  T  S  S  S  T  T  T   T  S  S  S  E   +E
|-17----------------17h19p17----17---------------------------------------|
|----20-19-17-19-20----------20----20-19-17h19p17-----17-----------------|
|--------------------------------------------------19----19p17-19--(19)\-|
|------------------------------------------------------------------------|
|------------------------------------------------------------------------|
|------------------------------------------------------------------------|
|
|  PM    PM---|      PM|
|  S  S  S  S  S  S  S  S  Q                    E.              S
|------------------------------------------------------------------------|
|--------------------------3--------------------3---------------2--------|
|-----2-----------2--------0--------------------2---------------2--------|
|-----2-----------2--------0--------------------0---------------0--------|
|-----0-----------0--------x---------------------------------------------|
|--3-----3--2--3-----3--2--3---------------------------------------------|


  A5      N.C.                        A5              N.C.
   E.        +S    a        Q               +Q.                S   S
|--------------------------15--------------(15)---------------15--15--|
|-15b17=====(15)r(15)b17===15--------------(15)---------------15--15--|
|---------------------------------------------------------------------|
|---------------------------------------------------------------------|
|---------------------------------------------------------------------|
|---------------------------------------------------------------------|
|
|             ~~~~~~~~~~~~~~~~~~~~~~~~~~~~~~~~~~~~~~~~         ~~~~~~~~
|                  |------3------|      |----3----|        |---3---|
|  E.        +S   +E       +E   +E     +E   +E   +E        E   E   E
|---------------------------------------------------------------------|
|---------------------------------------------------------13----------|
|-12b14=====(12)-(12)-----(12)-(12)---(12)-(12)-(12)r-----------------|
|---------------------------------------------------------------------|
|---------------------------------------------------------------------|
|-------------------------------------------------------------17\-17\-|
|
|         PM------------------------|                 PM|  ~~  PM-|
|  E      S   S             S    S  S   S   +S    S   S S  E   S   S
|---------------------------------------------------------------------|
|---------------------------------------------------------------------|
|--2------------------------------------2---(2)---2-------------------|
|--2------------------------------------2---(2)---2-------------------|
|--0------------------------------------0---(0)---0-------------------|
|---------3---2-------------3----0--3-----------------3-2--3---2---3--|


       A5  N.C.  G5
                         /1______________________/
   +S   E     S   E      a    +E       +E       +E     Q
|-(15)-15----15--15-----15---(15)-----(15)-----(15)---15----------|
|-(15)-15----15--15-----15---(15)-----(15)-----(15)r==15----------|
|-----------------------------------------------------------------|
|-----------------------------------------------------------------|
|-----------------------------------------------------------------|
|-----------------------------------------------------------------|
|
|~~~~~~~~~~~~~~~~~~~~~~~~~~~~~~~~~~~~~~~~~~~~~~            ~~~~~~~
|   |----3----|      |------3------|
|   E   E     E      E         E   E    S   E.      E      S   S
|-----------------------------------------------------------------|
|-----------------------------------------------------------------|
|-----------------------------------------------------------------|
|------------------------------------------19\--------------------|
|-----------------------------------------------------------------|
|--17\-17\---17\----17\-------17\-17\--17\----------------17\-17\-|
|
|       PM-------|                                         PM
|   S   S  S  S   E      E              Q           E      S   S
|-----------------------------------------------------------------|
|-----------------------------------------------------------------|
|-------2---------0-----------------------------------------------|
|-------2---------0-----------------------------------------------|
|-------0---------------------------------------------------------|
|----------3--2---3----------------------------------------2---3--|


  A5      N.C.    G5                                        F#G
  Gtr III
   ~~~~~~~~~~~~~~~
   |---3---|   |-------3--------|       |-3--|  |--3--| |--3--|
   E   E   E   E  E a a  S     +S  +E   S S  S  S  S  S S   S S
|---------------------------------------------------------------|
|---------------------------------------------------------------|
|-----------------------[6]b8==(6)r(6)p=5-----------------------|
|---------------------x-------------------7p=5------------------|
|-------------------x---------------------------7s=5p=3---------|
|-17\-17\-17\-17\---------------------------------------5---3p0-|
|
| Gtr I
|      PM---------|                                         PM|
|  S   S   S   S  E             E         Q               E S S
|---------------------------------------------------------------|
|---------------------------------------------------------------|
|--2---2----------0---------------------------------------------|
|--2---2----------0---------------------------------------------|
|--0---0--------------------------------------------------------|
|----------3---2--3-----------------------------------------2-3-|


      A5N.C.  G5                                     N.C.
  Gtr II
                                 |-3-|
  E     E      S. T     T  T T T S S S T T T T S T T S S
|-------3s====10p=9p====7--------------------------------|
|-------------------------10p8p7-------------------------|
|--------------------------------9p7s6-------------------|
|--------------------------------------9p7p5S4-----------|
|----------------------------------------------7s5s4-----|
|----------------------------------------------------7-5-|
|
| Gtr III
| \1_________________/
| E.      +S  +E     a  E        H
|--------------------------------------------------------|
|--------------------------------------------------------|
|--------------------------------------------------------|
|--------------------------------------------------------|
|--------------------------------------------------------|
|-0-------(0)-(0)---(0)----------------------------------|
|
| Gtr I
|     PM------|                                      PM
| S   S S  S   E        E        Q             E     S S
|--------------------------------------------------------|
|--------------------------------------------------------|
|-----2--------0-----------------------------------------|
|-----2--------0-----------------------------------------|
|-----0--------------------------------------------------|
|-------3--2---3-------------------------------------2-3-|


  A5  N.C.      G5                        N.C.
  ~
  Q      E               E         H
|------------------------------------------------|
|------------------------------------------------|
|------------------------------------------------|
|------------------------------------------------|
|------------------------------------------------|
|-3-----(x)--------------------------------------|
|
|        /0.25____/1.75________/           \2_____
| Q      a       +Q           +Q       E   E
|------------------------------------------------|
|------------------------------------------------|
|-------<7>-----(<7>)--------(<7>)--------<7>----|
|-------<7>-----(<7>)--------(<7>)--------<7>----|
|------------------------------------------------|
|------------------------------------------------|[
Colaboração e revisão:
  • Taino Vieira
5.004 exibições
    • ½ Tom
    • A
    • Bb
    • B
    • C
    • Db
    • D
    • Eb
    • E
    • F
    • F#
    • G
    • Ab
  • Adicionar à lista

    0 comentários

    Ver todos os comentários

    Conseguiu tocar?

    1 Tocaram 0 Ainda não

    Grave um vídeo tocando Erotic Nightmares e nos envie!

    00:00 / 00:00
    outros vídeos desta música
    repetir qualidade Automático
    Outros vídeos desta música
    00:00 / 00:00
    Automático

    Cifra Club Pro

    Aproveite o Cifra Club com benefícios exclusivos e sem anúncios
    Cifra Club Pro
    Aproveite o Cifra Club com benefícios exclusivos e sem anúncios
    OK