Cifra Club

Aprenda

Sisters

Steve Vai

Cifra: Principal (violão e guitarra)
tom: G
   Gtr I
  S S S S a E S S e  Q.     S S S S a E S S S S E +Q
|-------------5------2----|-------------0--------------|
|-----3---------5----3----|---------------1-----3-(3)--|
|-------2------------4----|-----2---------------2-(2)--|
|-------------------(4)---|-------3--------------------|
|---------3s5-----0--2----|----------------------------|
|-0h3---------------------|-0h1-----3s5-------3--------|

                                |-3-|
  S S S S a E S S e  E  +S  a S S S S
|-------------5------2--(2)-------------|
|-----3---------5----3--(3)-----3-------|
|-------2------------4--(4)-----2h4p2---|
|-------------------(4)-(4)-2h4---------|
|---------3s5-----0--2--(2)-------------|
|-0h3-----------------------------------|


                    <
  s s s s a e e s s s s s s s s    s s s s a e s s e e  s  t t s s
|-------------------------------||-------------5-------(2)-----0---|
|-------------5-----3-3-3-3-3-3-||-----3---------5---3-----------0-|
|-----2---------5---2-2-2-2-2-2-||-------2-----------4-----2s4-----|
|-------3-----------------------||-------------------4-------------|
|-------------------------------||---------3s5-----0-2-------------|
|-0h1-----3s5---5---3-3-3-3-3-3-||-0h3-----------------------------|

                            |-3-|
  s s s s a e s s s s s s s t t t s s
|-------------------------------------|
|-------------5-------3---------------|
|-----2---------5-----2p0-------------|
|-------3-----------------2h3p2p0---0-|
|---------------------------------3---|
|-0h1-----3s5-------3-----------------|

  s s s s a e s s e e  t t s a s s
|-------------5-------(2)----------|
|-----3---------5---3--------------|
|-------2-----------4--4s5-----2---|
|-------------------4--4s5-2-2h4-2-|
|---------3s5-----0-2--------------|
|-0h3------------------------------|

                          |-3-|
  s s s s a e s s s s e s t t t s s   s s s s a e s s e e +s  +s  e
|-----------------------------------|-------------5-----2-(2)-(2)-----|
|-------------5-------3-------------|-----3---------5---3-(3)-(3)-----|
|-----2---------5-----2-2h4p2p0---0-|-------2-----------2-(2)-(2)-----|
|-------3-----------------------0---|---------------------------------|
|-----------------------------------|---------3s5-----0-2-(2)---------|
|-0h1-----3s5-------3---------------|-0h3-----------------------------|


                              5/8
  q  s s s s s  s  e +s  s e    q  s  s   q
|-0--0-------------2-(2)-2---|-^0-------------||
|-2----2-----------3-(3)-3---|-^2----------||
|-2----2-----------2-(2)-2---|-^2----------||
|----------------------------|----------------||
|-2----------0-----2-(2)-2---|-^2-------------||
|--------2-2---(2)-----------|----------------||


 4/4
                PM----|
  E. S a  E  E  S S S S  S  S a S S
|---------------------5p(2)---------|
|------3-(3)(3)-------3-(3)---------|
|------0h=2p=0------4---------2s4s2-|
|----0------------4-----------------|
|---------------2-----------2-------|
|-3---------------------------------|

  +E  S S S S S T T E S S S S S S
|-------3p0-----------0-----------|
|-----------1-----------1-1-------|
|-(2)-----------0h2p0-----0-------|
|-----3-------3-----------3-2-0---|
|-------------------------------3-|
|---------------------------------|


                                                             T     T
  E a a E S S a    +S  +T  T a E. S S S S S   E. S S S E +E  E.    E     S
|-----0-------------------------------5-----|----------------5(17)-----------||
|-----3s5-3-0-----------------------3---3---|----7-----5-(5)-5(17)-----------||
|---0---------2b4==(2)r(2)p0h2s4--0-------0-|----7-----6-(6)-6(18)-6(18)-----||
|-------------------------------------------|----7-----7-(7)-------7(19)-----||
|-------------------------------------------|-5------------------------------||
|-0-----------------------------------------|--------5-------------------5s==||

  S  S   S    S    S    E   S S S  S   S   S   S  T  S.
|-----------------------------------------------|
|-----------------------------------------------|
|-----------------------------------------------|
|-----------------------------------------------|
|---10--------------------------7----------------------|
|-8------------------------10s8-------------------8s10s|


                                                  PM
  Q  S T T S T T a  S  S S S S S S S   E E  S E S S S S S S S S S
|------------------------------------|----------------------------|
|----------------5h=6--5---5---------|-----10---------------------|
|----2h3p2p0-2s5-5-(5)-5---5-----5---|-----10---------7-----------|
|----------------5h=7--5-5-5-----5---|-----10-------------8-------|
|------------------------8-----7-----|---8----------5-------8-----|
|-3--------------------------------8-|-6--------8s6-----6-----5s3-|


                                                   <
  s s s s a e s s s s e s s s s    e s s a e s s s s t  s. e s s
|-----------------------3-0-----|--------------------------------||
|-------------5-------3-3-0-3-0-|-(0)--------5-------3-(3)-3-3-3s||
|-----2---------5-----2-----2-0-|-(0)----------5-----0h=2--2-2-2s||
|-------3-----------------------|------------------------------4s||
|-------------------------------|--------------------------------||
|-0h1-----3s5-------3-----------|--0h1-1-3s5-------3-------3-3---||

                         |--3--|
   s  s  s  a   s   +s   t  t  t  s  s  s   s    e   +s   s  s  s
|------------------------------------------------0---(0)-----------|
|-13-12------------------------------------------0---(0)-----------|
|-12-12----12-(12)-(12)-12----------------------14--(14)-------10--|
|-14-12----12-(12)-(12)-12----------12-----12--(12)-(12)s10-10-10--|
|-------15-12h=14--(14)-12h14p12-10-12-14-(14)-(14)-(14)s10-12-----|
|------------------------------------------------------------------|

                                                   |-3-|
   s  s  s   t   t  s  s  s  s  s  s s  s  +e   s  t t t
|----------------------0----------------8--(8)--8\-------|
|---------------------10-------10s=8----8--(8)--8\-------|
|-10-10-10-(10)(10)------------12s10---12-(12)-10\-------|
|-14-12-10h=12p=10--9----------12s10---10-(10)-10\-------|
|------------------------12s10-10s=8-8--8--(8)--8\-------|
|--------------------------------------------------0h5h7-|

  s s s s q  e s s +e  e   e s s s s e +e  q.
|---------0--5---2-(2)-2-|-2-3-2-0--------------|
|-----8---0--3---3-(3)-3-|-3---3-----2-(2)------|
|-----7------2-2-2-(2)---|-2---2-----2-(2)------|
|--------------0---------|-0---------2-(2)------|
|-5s7--------------------|---------0-------2s===|
|-------0----------------|----------------------|

   s  s   s    s    s    s    s   s  s  s   s    s    s    s   a  e
|-----------------------------------------------------------|
|---------------------------------------------------|
|-------------------------------------------------------|
|----17--------------------------------14---------------------------|
|-15-----------------------------17s15------------------------15s17s|
|-------------------------------------------------------------------|

   S    E   S S S  E  T T S  S  a S a S S  E     +Q     E S   S  S  T  T  S  T T S T T S S
|----!---------------------------------|---------------------------------------------|
|----!---------------------------|-()--10-------15-------10------5-----3----|
|----!------------------------------|-()--10-------15-------10------5-----3----|
|---------------------------------------------|--------10-------15-------10------5-----3----|
|-10-------12s7-5-----7s5-3-----3s7-----------|---------8---/17----17s12----12s7---7s5---5\-|
|-----------------------------------7s5-3-----|---------6-----------------------------------|

  S S S S a E S S S S S S a E e   T S. +S  +S   a E s s S S T S.   S  S  S  S
|-----------------x-------3s5-3-|-3s5--(5)-(5)\-------------------------------|
|-------------5---x---3---3s5-3-|-3s5--(5)-(5)\-----5-------3----/13-------12-|
|-----2---------5-x---2-0-2s4-2-|-2s4--(4)-(4)\-------5-----2p0--/12-12----12-|
|-------3---------x-------------|--------------------------------/14-12----12-|
|-----------------x-------------|---------------------------------------15----|
|-0h1-----3s5-----x-3-----------|---------------3s5-------3-------------------|

  S S S S a E S S E E T T T T S S
|-------------5-------0------------|
|-----3---------5---3---0-------0--|
|-------2-----------4-----2--------|
|-------------------4-------4------|
|---------3s5-----0-----------2----|
|-0h3------------------------------|

  S S S S a E S S S S S S a S  S  S a S
|---------------------------------------|
|-------------5-------3---3s5--3----3s5-|
|-----2---------5-----2p0-2s4--2--0-2s4-|
|-------3---------------------(0)-------|
|---------------------------------------|
|-0h1-----3s5-------3-------------------|

                                                        |---3---|
  S S S S a E S S E E S S a  S  a  S    S S S S a E S S E a  E  E a Q
|-------------5-----2-----------------|----------------------------------|
|-----3---------5---3-----3-(3)-3--3--|-------------5-----6-(6)-6-6s8----|
|-------2-----------4-----2-(2)-2-(2)-|-----2---------5---5-(5)-5-5s7----|
|-------------------4---2-2h=4--2h=4--|-------3-----------5h=7--5-5s7----|
|---------3s5-----0-2-----------------|----------------------------------|
|-0h3---------------------------------|-0h1-----3s5----------------------|


                                                           5/8
  S S S S a E S S E Q  +S  S   Q  +S  S E S S E S  S  S S   H    E
|-------------------2--(2)-2-|-0--(0)--------------2------|-0------||
|-----3-------5-----3--(3)-3-|-2--(2)-2-------3-3-(3)-----|-2------||
|-------2-------5---2--(2)-2-|-2--(2)-2-------2-2---------|-2------||
|----------------------------|-0--(0)-----2-x-4-4---------|-0------||
|---------3s5-------2--(2)-2-|-2--(2)-----0-x-2-2-------2-|-2------||
|-0h3------------------------|----------2-----------------|--------||


 4/4
   e  S S  S   E.  +Q   S  S S S    S S  S   S  +H     S S S S
|-12-10--------------------------|-----------------------------|
|---------10s=12--(12)----10s8---|-10--------------------------|
|--9--7--------------------------|-------9s=12-(12)------9s7---|
|-------7-(7)s=9---(9)-----7s5-5s|==7--------------------------|
|--------------------------------|----7-(7)s=9--(9)------7s5-5-|
|--------------------------------|-----------------------------|

  a E.S S S S S  a   E E +S  S  e
|-----------------------------------|
|-----------8----8s=10s8-(8)---10---|
|-7s9s7-----------------------------|
|---------5---5-(5)s=7s5-(5)----7---|
|-5s7s5-----------------------------|
|-----------------------------------|

   T  T E S E  E  +Q.   S S
|---------------------------|
|-10s12---8---10-(10)-------|
|-------------------------9-|
|--7s=9---5----7--(7)-------|
|---------------------------|
|---------------------------|

   e   e  a  e  e S  S  E S S  S  S   T S.E +E. S S E S +E. T T
|-12--10----------------------------|---------------------------|
|--------10s12-10-8-10-12-8---------|---------------------------|
|-(9)--7-----------------------7s=9-|-7s9s7-(7)s5s4s5s4-(4)-----|
|---------7s=9--7-5--7--9-7---------|---------------------------|
|---------------------------5-(5)s7-|-5s7s5-(5)s3s2s3s2-(2)-7s8-|
|-----------------------------------|---------------------------|


   ~~~~                      ~~~
   E  S S S S  S  S +S  S E +E  E   S S S S  S  S  S S a  E E +E   S S
|---------------------------------|------------10----------------------|
|---------------------------------|-------8-10----10-8-8s10-8-(8)\-----|
|-10s=9s7s5----5s=7-(7)s9s5-(5)---|---7-9-------7--------------------5S|
|---------------------------------|-------5--7-----7-5-5s=7-5-(5)\-----|
|-(8)s7s5s3-3-(3)s5-(5)s7s3-(3)---|---5-7----------------------------3S|
|---------------------------------|------------------------------------|

  S S S  S  S  S S S T  S.  +E   S  T T  T T  T T
|----------10----------------------12---12---12----|
|-----8-10----10-8-x-8s10--(10)s12-----------------|
|-7-9-------7------x------------------9----9----9--|
|-----5--7-----7-5-x-5s=7---(7)s=9-----------------|
|-5-7----------------------------------------------|
|--------------------------------------------------|

   E  S S  a   E.  +S  Q   S S  S  S    a  E  S  S  a  e  S  S  +S   s  S  S  T  T S  T  +S.
|-12-10------------------------12-15-|-15s17s15-17-17s19-15-17-(17)-17-15-17-17s19---15-(15)s|
|---------10s=12--(12)s8\------------|-------------------------------------------------------|
|-----7----------------------9----12-|-12s14s12-14-14s16-12-14-(14)-14-12-14-14s16---12-(12)s|
|-------7-(7)s=9---(9)s5\------------|-------------------------------------------------------|
|------------------------------------|-------------------------------------------------------|
|------------------------------------|-------------------------------------------------------|

         |3-|
   E  e  E  S  S   S   +S   e  S S  T  T  S   S
|-22s15-17--------22--(22)s15-17-------------22s====|
|---------------------------------------------------|
|-19s12-14-14s19-(19)-(19)s12-14---14s19-19-(19)s===|
|---------------------------------------------------|
|---------------------------------------------------|
|---------------------------------------------------|

   E.  S S  S  E  +Q    +E  S  S    E  e  S  e  S  +Q   E  S  S
|-15--17---19s17-(17)--(17)------|-20-19-17s15-15-(15)----------|
|--------------------------------|------------------------15-15-|
|-12--14---16s14-(14)--(14)---17-|----16-14s12-12-(12)----------|
|--------------------------------|------------------------12-12-|
|--------------------------------|------------------------------|
|--------------------------------|------------------------------|

   S  S  S  S  a  H    S  S   S    T   T
|----------------------------------------|
|-17s15-15-12-12s15----------15--(15)s18-|
|----------------------------------------|
|-14s12-12--9--9s12------12-(12)--12s=15-|
|----------------------------------------|
|----------------------------------------|

   T  s.  S  T  T S  T  T  T  S. S  S  S  S  S  +S   S T  T
|-----------17------------20----------24s22-22-(22)\---------|
|-18---------------------------------------------------------|
|--------------14---14s17----17----21-21s19-19-(19)\---9s12--|
|----15--15--------------------------------------------------|
|------------------------------------------------------------|
|------------------------------------------------------------|

    S   S   S  S S  S   S S a  E E +E  S  T   T
|--15s=10-(10)-----------------------------------|
|------------------12s=10----------------12h=13--|
|-(12)s=7---7---------------9s12s7-(7)---12-(12)-|
|--------------7s9-(9)s=7----------------12h=14--|
|-------------------------7-7s10s5-(5)-----------|
|------------------------------------------------|

   S  S  S  S  a   S   S  S   S   T   T  S  a   E   +S  S  E
|-------------------------------------------------------------||
|-------------------------------------------------------------||
|-12----12----12-(12)------------12-(12)---12-(12)-(12)-x-----||
|-12----12----12-(12)-12---------12-(12)---12-(12)-(12)-x-----||
|----15----14-12h=14--12---------12h=14----12h=14--(14)-x-12\-||
|------------------------15-(12)--------------------------12\-||


                                                                    \0.5____/
  S S S S a E S S e E +S  S S S   S S S S a E S S  a  S S S  S   a  S      +S   +E
|-------------5-----2-(2)---0---|------------------------------/10-12-----(12)-(12)-|
|-----3---------5---3-(3)---0---|-------------5---/8s10s8-8-10-/10-12-----(12)-(12)-|
|-------2-----------4-(4)-----2-|-----2---------5-/7s=9s7-7--9--/9-11-----(11)-(11)-|
|-------------------4-(4)-4-----|-------3-------------------------------------------|
|---------3s5-----0-2-(2)-------|---------------------------------------------------|
|-0h3---------------------------|-0h1-----3s5---------------------------------------|

  S S S S a E S S e E +S  S a  S  S
|-------------5-----2-(2)-------------|
|-----3---------5---3-(3)---2-(2)-----|
|-------2-----------4-(4)---2-(2)-2---|
|-------------------4-(4)-5-2h=4--2---|
|---------3s5-----0-2-(2)-------------|
|-0h3---------------------------------|

  S S S S a E S S  S  a   S   S  S  S  S  T  S.
|-------------5------15-(15)-------15----17s19\-|
|---------------5/---15h=17--15----15----15s17\-|
|-----2-------------------------17-16-----------|
|-------3-----------------------------17--------|
|-----------------------------------------------|
|-0-1-----3s5-----------------------------------|

                                                       |-3-|
  S S S S a E S S e  E T T T T S S   S S S S a E S S S T T T S S +S  S S S
|-------------5--------0-----------|---------------------------3-(3)--------|
|-----3---------5---!3---0-------0-|-------------5-------------3-(3)-3------|
|-------2-----------!4-----2-------|-----2---------5-2h4p2p0---0-(0)-0------|
|-------------------!4-------4-----|-------3-----------------3-------2------|
|---------3s5-----0-!2---------2---|-----------------------------------3s5--|
|-0h3------------------------------|-0h1-----3s5----------------------------|

  S S S  S  S T T S S +S  T T E +S  S  S S
|-----3-(3)-------5-5-(5)-----0-(0)------0-|
|-----3-(3)-------5-5-(5)-----0-(0)------0-|
|-----2p=0--------4-0-(0)-----7-(7)---11---|
|-----0-(0)-0-----------------7-(7)-9------|
|-------------3s5--------------------------|
|-0h3---------------------5s7--------------|

  S S S S +S  T T S S S S E S S S S   S S S S a E S S S S S s  T  s.  S  s
|---------------------------5---5---|-------------------------17s19--17-15----|
|-----1-1-(1)-----5-6-5-6-3---------|-------------5-------3-0-15s17--15-13----|
|-----2-0-(0)-----5-7-5-7-2---2---2-|-----2---------5-----2-0-----------------|
|-----------------------------------|-------3---------------------------------|
|-----------------------------------|-----------------------------------------|
|-0h1---------3s5---------3---------|-0h1-----3s5-------3---------------------|

   T  S.  +S   S a E S S S S E T S. e   Q   E S S S S E +Q     +W
|-17s19--(19)\-----------------5s7--7-|-3--^3-3-------3-(3)--|-(3)----*|
|-15s17--(17)\-------5-------3-3s5--5-|-1--^1---1-----0-(0)--|-(0)----*|
|----------------------5-----2--------|-0--^0-----0---0-(0)--|-(0)----*|
|-------------------------------------|-3--^3---------0-(0)--|-(0)----*|
|-------------------------------------|----------------------|--------*|
|--------------0-3s5-------3----------|-------------3-3-(3)--|-(3)----*|
Composição de Steve Vai
Colaboração e revisão:
  • Bruno Souza
10.922 exibições
    • ½ Tom
    • A
    • Bb
    • B
    • C
    • Db
    • D
    • Eb
    • E
    • F
    • F#
    • G
    • Ab
  • Adicionar à lista

    0 comentários

    Ver todos os comentários

    Conseguiu tocar?

    0 Tocaram 1 Ainda não

    Grave um vídeo tocando Sisters e nos envie!

    00:00 / 00:00
    outros vídeos desta música
    repetir qualidade Automático
    Outros vídeos desta música
    00:00 / 00:00
    Automático

    Cifra Club Pro

    Aproveite o Cifra Club com benefícios exclusivos e sem anúncios
    Cifra Club Pro
    Aproveite o Cifra Club com benefícios exclusivos e sem anúncios
    OK