Cifra Club

Cool & Calm

Sticky Fingers

Cifra: Principal (violão e guitarra)
Selo Cifra Club: esta cifra foi revisada para atender aos critérios oficiais da nossa Equipe de Qualidade.
tom: C
[Intro] C7M  G  Am   
        C7M  G  Am  
        C7M  G  Am  
        C7M  G  Am  

[Primeira Parte]

               C
Oh when these feelings run high
    G
I'm going to feel alive
          Am7
Like the rebirth that comes from with inside
          C
I've got insight, fuck pride
 G                            Am7
Imma live this life, with no fears

Swagger in my stride, this is who I am

C                 G
See sometimes it might seem hard
        Am7
But you gotta push on to the next frame of mind
 C            G
Love life, livin' in the sunshine
 Am
Love life, livin' in the sunshine

[Refrão]

 C7M    Am
Stay with me
Em                C       Am      Em
  We can let this go, you see
C           Am
I'm up in arms
Em                          C      Am  Em
Can't you see what's really going on

( C  G  Am )

                        C          G   Am
Can't you see that I am cool and calm

[Segunda Parte]

   C            G7M            Am7
A forest in my mind no velvet echoes
  C7M                 G
Freely swimming in this ocean breeze
       Am7
Cause no one gets out of here alive
 C7M                 G
Oh, my friend, you're like a stone
  Am7
Elected once and you're all on your own yeah

C7M                G
Let's bring back the sunshine
       Am
Let's bring back the sunshine

[Terceira Parte]

G
Back when it was darkness
F#
Full of self-destructiveness
Am
Brinking a muck over no-where

We were thinking fuck this
G                        F#
Gotta push through this, the cuts and the bruises
Am
Self manifestation and crudeness
           G                F#
We need to use this, follow positivity
           Am
Cause I'm sick of kicking 'round all these dead beats, dead sheep
   Em                        D                         C 
We used to live a life of luxury, so let's get back to that

[Refrão]

 C       G     Am7 
Stay with me
               C7M     G    Am 
We can let this go, you see
    C      G     Am 
I'm up in arms
                            C     D     Am 
Can't you see what's really going on

                        C7M         Am7
Can't you see that I am cool and calm

[Riff]

E|------------------------------------------|
B|------8-10-10/12-12p10-----8~~------------|
G|--6/9-------------------9-----------------|
D|------------------------------------------|
A|------------------------------------------|
E|------------------------------------------|

E|------------------------------------------|
B|--8p5-------------------------------------|
G|-------7/9--------------------------------|
D|------------------------------------------|
A|------------------------------------------|
E|------------------------------------------|

E|------------------10----------------------|
B|------8-10-10/12-------8~~----------------|
G|--6/9-------------------------------------|
D|------------------------------------------|
A|------------------------------------------|
E|------------------------------------------|

E|------------------------------------------|
B|--8p5-------------------------------------|
G|-------7/9--------------------------------|
D|------------------------------------------|
A|------------------------------------------|
E|------------------------------------------|


          C7M       G  Am7
That I am cool and calm
                        C7M     G    Am7
Can't you see that I am cool and calm

( C7M  G  Am )
( C7M  G  Am )

  C            G              Am 
A forest in my mind no velvet echoes
      Am                        G 
Cause no one gets out of here alive
Outros vídeos desta música
    9.882 exibições
      • ½ Tom
      • A
      • Bb
      • B
      • C
      • Db
      • D
      • Eb
      • E
      • F
      • F#
      • G
      • Ab
    • Adicionar à lista

    Afinação da cifra

    Afinador online

      0 comentários

      Ver todos os comentários

      Entre para o Cifra Club PRO

      Tenha acesso a benefícios exclusivos no App e no Site

      • Chega de anúncios

      • Badges exclusivas

      • Mais recursos no app do Afinador

      • Atendimento Prioritário

      • Aumente seu limite de lista

      • Ajude a produzir mais conteúdo

      Cifra Club Pro

      Aproveite o Cifra Club com benefícios exclusivos e sem anúncios
      Cifra Club Pro
      Aproveite o Cifra Club com benefícios exclusivos e sem anúncios
      Ops (: Contenido disponible sólo en portugués.
      OK