Cifra Club

Sally Cinammon

The Stone Roses

Cifra: Principal (violão e guitarra)
Selo Cifra Club: esta cifra foi revisada para atender aos critérios oficiais da nossa Equipe de Qualidade.
tom: C
Intro Tab For Sally Cinammon

E|-----------------------|
B|----3-1-0-1-0-1-0-1-0--|
G|--0-------------------2|
D|-----------------------|
A|-----------------------|
E|-----------------------|
X2

Then 'D'

E|-----------------------|
B|-1-0-1-0---------------|
G|---------2-------------|
D|-----------------------|
A|-----------------------|
E|-----------------------|
Outros vídeos desta música
    41 exibições
      • ½ Tom
      • A
      • Bb
      • B
      • C
      • Db
      • D
      • Eb
      • E
      • F
      • F#
      • G
      • Ab
    • Adicionar à lista

    Afinação da cifra

    Afinador online

      0 comentários

      Ver todos os comentários

      Entre para o Cifra Club PRO

      Tenha acesso a benefícios exclusivos no App e no Site

      • Chega de anúncios

      • Badges exclusivas

      • Mais recursos no app do Afinador

      • Atendimento Prioritário

      • Aumente seu limite de lista

      • Ajude a produzir mais conteúdo

      Cifra Club Pro

      Aproveite o Cifra Club com benefícios exclusivos e sem anúncios
      Cifra Club Pro
      Aproveite o Cifra Club com benefícios exclusivos e sem anúncios
      Ops (: Contenido disponible sólo en portugués.
      OK