Cifra Club

1st Person

Stone Sour

Cifra: Principal
exibições 3.436
Tom: B
STONE SOUR

1 st. PERSON

AFINAÇÃO (B,F#,B,E,G#,C#)

INTRO 

C#|----------------------------------------------------------------------
G#|----------------------------------------------------------------------
E|-----------------------------------------------------------------------
B|---2---2-------------2-2-2---------------------------------------------
F#|--2---2-------------2-2-2---3-3-3-3-3---------------------------------
B|---2---2-------------2-2-2---3-3-3-3-3-----------(tocar 8x)------------

VERSO

C#|--------------------------------------------------------------------
G#|--------------------------------------------------------------------
E|---------------------------------------------------------------------
B|---------------------------------------------------------------------
F#|---0-2-2-2-2-----7-2-2-2-2-2-2-8---2-2-2-2-2-2-8-2-2-2-2--5--7--12--
B|----0-2-2-2-2-----7-2-2-2-2-2-2-8---2-2-2-2-2-2-8-2-2-2-2--5--7--12--

C#|---------------------------------------------------------------------
G#|---------------------------------------------------------------------
E|----------------------------------------------------------------------
B|----------------------------------------------------------------------
F#|---2-2-2-2-7---2-2-2-2-2-2-8-----------------------------------------
B|----2-2-2-2-7---2-2-2-2-2-2-8---8-8-8-8------8---12-----(tocar 2x)----

PRÉ REFRÃO

C#|-------------------------------------------------------------------------------------
G#|-------------------------------------------------------------------------------------
E|--------------------------------------------------------------------------------------
B|--------------------------------------------------------------------------------------
F#|---7---------7------8----------8------10----------10-------8----------------8--------
B|----------7-----------------7-------------------7--------------------7-------(tocar 2x)

REFRÃO

C#|----------------------------------------------------------------------
G#|----------------------------------------------------------------------
E|-----------------------------------------------------------------------
B|-----------------------------------------------------------------------
F#|--3-3-3-3-2-----3-3-3-3-2---3-3-2-2--3-3-2-2-8-8-8-8-5-5-7-7----------
B|---3-3-3-3-2-----3-3-3-3-2---3-3-2-2--3-3-2-2-8-8-8-8-5-5-7-7-(tocar 2x)

C#|-----------------------------------------------------------------------
G#|-----------------------------------------------------------------------
E|------------------------------------------------------------------------
B|------------------------------------------------------------------------
F#|---3-3-2-2-7---3-3-2-2-7-----3-3-2-2-3-3-2-2-8-8-8-8-5-5-7-7-----------
B|----3-3-2-2-7---3-3-2-2-7-----3-3-2-2-3-3-2-2-8-8-8-8-5-5-7-7-(tocar 2x)

C#|----------------------------------------------------------------------------------
G#|----------------------------------------------------------------------------------
E|-----------------------------------------------------------------------------------
B|-----------------------------------------------------------------------------------
F#|---------------------5---------8-7----7-7-8-8-7-7-2-2-7-7-5-5-2-2-7-7-------------
B|---8---8-7---7-8---------8-7-----------7-7-8-8-7-7-2-2-7-7-5-5-2-2-7-7-(tocar 2x)--

(INTRO)

(VERSO)

(PRÉ REFRÃO)

(REFRÃO) --(neste refrão no final da segunda vez faça o RIFF abaixo)

C#|------------------------------------
G#|------------------------------------
E|-------------------------------------
B|-------------------------------------
F#|---7---8---7---2---7---5---2---7----
B|----7---8---7---2---7---5---2---7----

INTERLUDE

C#|-----------------------------------------------------------------------
G#|-----------------------------------------------------------------------
E|------------------------------------------------------------------------
B|--------------------------------------------------10-12--10-10-10-10----
F#|--5-2-2-5-2-2-2-5-2-5-2-2-5-2-2-2-5-2-2-5-2-2-2--8--10--8--8--8--8-----
B|---5-2-2-5-2-2-2-5-2-5-2-2-5-2-2-2-5-2-2-5-2-2-2-----------(tocar 3x)---

C#|--------------------------------------------------------
G#|--------------------------------------------------------
E|---------------------------------------------------------
B|--------------------10-12--10-10-10-10-------------------
F#|---5-2-2-5-2-2-2---8--10--8--8--8--8--------------------
B|----5-2-2-5-2-2-2----------------------------------------

PRÉ REFRÃO 2

C#|-----------------------------------------------------------------------------------
G#|-----------------------------------------------------------------------------------
E|------------------------------------------------------------------------------------
B|------------------------------------------------------------------------------------
F#|--10-------------10--------------7---------------7-----------------8-------------8-
B|------------7-------------------------------7--------------------------------7------

C#|------------------------------------------------------------
G#|------------------------------------------------------------
E|-------------------------------------------------------------
B|-------------------------------------------------------------
F#|---10-------------10--------------8-------------------8-----
B|------------7---------------------------------7--------------

(REFRÃO)

FINAL

C#|------------------------------------------------------------------------
G#|------------------------------------------------------------------------
E|-------------------------------------------------------------------------
B|---2-2-----------2-2-2--------------------------2---2-----2-2-2----------
F#|--2-2-----------2-2-2-3-3-3-3-3----------------2---2-----2-2-2----------
B|---2-2-----------2-2-2-3-3-3-3-3---(tocar 5x)---2---2-----2-2-2----------
Acordes para:
    Composição: Stone SourColaboração e revisão:
    • fernando coelho

    0 comentários

      mostrar mais comentários

      Conseguiu tocar?

      0tocaram0ainda não

      Grave um vídeo tocando 1st Person e mande pra gente!

      00:00 / 00:00
      outros vídeos desta música
      repetirqualidadeautomática
      Outro vídeos desta música
        00:00 / 00:00
        automática
        OK