Cifra Club

Cold Reader

Stone Sour

Tab de baixo: Principal
exibições 693
Five String Bass, Standard Tuning...

Intro (after synth slide, around 0:03)

A|-----------------------------------------------------------------------------------||
E|-----------------------------------------------------------------------------------|| 2x
B|--------0-0-0-3-3-3-0-3-3-3-3-1-1-1-0-2--0-0-0-3-3-3-0-3-3-3-3-1-1-1-0-3-----------||

Verse (When Corey starts singing; may be just guitar first two times, but sounds good with
bass also)

A|-----------------------------------------------------------------------------------||
E|-----------------------------------------------------------------------------------|| 2x
B|--------0-0-0-0-3-3-3-3-2-2-2-2-5-5-5-5-2-2-2-2-3-3-3-3----------------------------||
          I.....                 Can only hurt your case...

Pre-Chorus (not sure about this part, hope someone gives me feedback and corrects it)

A|--------0-5-3-7^9-0-3--0-5-3-7^9-0-3-----------------------------------------------||
E|--------------------------------------0-5-3-7^9-0-3--0-5-3-7^9-0-3-----------------|| 2x
B|-----------------------------------------------------------------------------------||
          But I....      Can't Fight You anymore--------------------

Chorus (may be slight variation)

A|-----------------------------------------------------------------------------------||
E|-----------------------------------------------------------------------------------|| 4x
B|--------0-3-0-5^7-0-2---0-3-0-5^7-0-2----------------------------------------------||
          No....         I Won't......
Composição: Stone SourColaboração e revisão:
  • Bruno Balberith

0 comentários

    mostrar mais comentários

    Conseguiu tocar?

    0tocaram0ainda não

    Grave um vídeo tocando Cold Reader e mande pra gente!

    00:00 / 00:00
    outros vídeos desta música
    repetirqualidadeautomática
    Outro vídeos desta música
      00:00 / 00:00
      automática
      OK