Cifra Club

Come What (Ever) May

Stone Sour

Cifra: Principal
exibições 2.663
Tom: A
Intro:
    D5 B5           D5 B5            D5 B5           D5 B5    E5 D5
E|------------------------------------------------------------------|
B|------------------------------------------------------------------|
G|------------------------------------------------------------------|
D|-7--4-4--4-------7--4-4--4--------7--4-4--4-------7-4------9-7----|   (4x)
A|-5--2-2--2--0h2--5--2-2--2--0h2---5--2-2--2--0h2--5-2-0h2--7-5----|
E|------------------------------------------------------------------|

Verso:
E|----------------------------------------|
B|----------------------------------------|
G|----------------------------------------|
D|-7--4-4---7--4-4---7--4-4----7--4--9-7--|
A|-5--2-2---5--2-2---5--2-2----5--2--7-5--|
E|----------------------------------------|
Can you take away every single day?
That we have given to another false prophet
Can you give us all a reason not to fall?
Before you take away another broken promise

(Intro)

Show your pretty face
Hide the bitter taste
You're still the rapist of an entire nation
You wanna be the man you gotta be a man
But you were nothing but a sad insinuation

B5
(Oooooh)
How can we ever live this down?
(Oooooh)
How can we ever live this down?

(Intro)

(Verso)
Keep your fingers crossed
The truth is at a lost
Big decision for an ordinary coward
The only problem is your fucking rhetoric
We're more in danger then before you took power

(Intro)

Now it's just a game
God you'll never change
You'd sell us out if you could only find a buyer
You don't give a shit
As long as idiots
Are in your corner you could set us all on fire

( B5 )
(Oooooh)
How can we ever live this down?
(Oooooh)
How can we ever live this down?

( B5  A5  F#5 )
You never wanted to be
They only wanted a parody
You want the world to be free
But what the hell is free about it?!

(Solo)

(Verso)
Now we reached the end
Just get it over with
But this is building to an adament conclusion
Come what ever may
There's gonna be a day
When we have figured out a possible solution

(Intro)

Every thing you've done
Is killing everyone
A little smile on a homicidal bastard
You wanna be a man
You gotta have a plan
Another failure is a guarenteed disaster

( B5 )
(Oooooh)
How can we ever live this down?
(Oooooh)
How can we ever live this down?

(  B5  A5  F#5 )
You never wanted to be
They only wanted a parody
You want the world to be free
She only wanted the world
You never wanted me
They only wanted a parody
You want the world to be free
But what the fuck is free about it?!

(Intro)
What the fuck is free about it?!
What the fuck is free about it?!
Acordes para:
    Composição: Stone SourColaboração e revisão:
    • Rafael Felipe

    0 comentários

      mostrar mais comentários

      Conseguiu tocar?

      1tocaram0ainda não

      Grave um vídeo tocando Come What (Ever) May e mande pra gente!

      00:00 / 00:00
      outros vídeos desta música
      repetirqualidadeautomática
      Outro vídeos desta música
        00:00 / 00:00
        automática
        OK