Cifra Club

Fabuless

Stone Sour

Cifra: Principal
exibições 199
Tom: C#
Eb|------------------------------------------------------------------------|
Bb|------------------------------------------------------------------------|
Gb|------------------------------------------------------------------------|
Db|------------------------------------------------------------------------|
Ab|-10-------10---------10------------11-------11-----------11-------------|
Db|-10---0---10---0-0---10---0-0------11---0---11---0---0---11---0---0-----|

Eb|------------------------------------------------------------------|
Bb|------------------------------------------------------------------|
Gb|------------------------------------------------------------------|
Db|------------------------------------------------------------------|
Ab|-5-------5---------5------------6-------6-----------6-------------|
Db|-5---0---5---0-0---5---0-0------6---0---6---0---0---6---0---0-----|

Eb|------------------------------------------------------------------------|
Bb|------------------------------------------------------------------------|
Gb|------------------------------------------------------------------------|
Db|------------------------------------------------------------------------|
Ab|-10-------10---------10------------11-------11-----------11-------------|
Db|-10---0---10---0-0---10---0-0------11---0---11---0---0---11---0---0-----|

Eb|------------------------------------------------------------|
Bb|------------------------------------------------------------|
Gb|------------------------------------------------------------|
Db|-------------------------------------5\--------6------------|
Ab|-13-------13---------13--------------5\--------6------------|
Db|-13---0---13---0-0---13---0-0--------5\--------6------------|

Eb|------------------------------------------------------------------------|
Bb|------------------------------------------------------------------------|
Gb|------------------------------------------------------------------------|
Db|------------------------------------------------------------------------|
Ab|-10-------10---------10------------11-------11-----------11-------------|
Db|-10---0---10---0-0---10---0-0------11---0---11---0---0---11---0---0-----|

Eb|------------------------------------------------------------------|
Bb|------------------------------------------------------------------|
Gb|------------------------------------------------------------------|
Db|------------------------------------------------------------------|
Ab|-5-------5---------5------------6-------6-----------6-------------|
Db|-5---0---5---0-0---5---0-0------6---0---6---0---0---6---0---0-----|

Eb|------------------------------------------------------------------------|
Bb|------------------------------------------------------------------------|
Gb|------------------------------------------------------------------------|
Db|------------------------------------------------------------------------|
Ab|-10-------10---------10------------11-------11-----------11-------------|
Db|-10---0---10---0-0---10---0-0------11---0---11---0---0---11---0---0-----|

Eb|------------------------------------------------------------------------------|
Bb|------------------------------------------------------------------------------|
Gb|------------------------------------------------------------------------------|
Db|-----------------------------------------5----5---5---5-----6----6---6---6----|
Ab|-13-------13-----------13----------------5----5---5---5-----6----6---6---6----|
Db|-13---0---13---0---0---13---0---0--------5----5---5---5-----6----6---6---6----|

Eb|------------------------------|
Bb|------------------------------|
Gb|------------------------------|
Db|-0----------------------------|
Ab|-0----------------------------|
Db|-0----------------------------|

Eb|-17----------------------17-------------------------|
Bb|-------18----------------------18-------------------|
Gb|-------------21----------------------21-------------|
Db|---------------------------------------------22-----|
Ab|----------------------------------------------------|
Db|----------------------------------------------------|

Palm Mute

Eb|--------------------------------------------------------------------------------------------------|
Bb|--------------------------------------------------------------------------------------------------|
Gb|--------------------------------------------------------------------------------------------------| X2
Db|-7--7--7--7--7--7--6--6--6--6--6--6--6--6--5--5--5--5--5--5--3--3--3--3--3--3--1--1--1--1---------|
Ab|--------------------------------------------------------------------------------------------------|
Db|--------------------------------------------------------------------------------------------------|

Eb|------------------------------------------------------------------------|
Bb|------------------------------------------------------------------------|
Gb|------------------------------------------------------------------------|
Db|------------------------------------------------------------------------|
Ab|-10-------10---------10------------11-------11-----------11-------------|
Db|-10---0---10---0-0---10---0-0------11---0---11---0---0---11---0---0-----|

Eb|------------------------------------------------------------------|
Bb|------------------------------------------------------------------|
Gb|------------------------------------------------------------------|
Db|------------------------------------------------------------------|
Ab|-5-------5---------5------------6-------6-----------6-------------|
Db|-5---0---5---0-0---5---0-0------6---0---6---0---0---6---0---0-----|

Eb|------------------------------------------------------------------------|
Bb|------------------------------------------------------------------------|
Gb|------------------------------------------------------------------------|
Db|------------------------------------------------------------------------|
Ab|-10-------10---------10------------11-------11-----------11-------------|
Db|-10---0---10---0-0---10---0-0------11---0---11---0---0---11---0---0-----|

Eb|------------------------------------------------------------------------------|
Bb|------------------------------------------------------------------------------|
Gb|------------------------------------------------------------------------------|
Db|-----------------------------------------5----5---5---5-----6----6---6---6----|
Ab|-13-------13-----------13----------------5----5---5---5-----6----6---6---6----|
Db|-13---0---13---0---0---13---0---0--------5----5---5---5-----6----6---6---6----|

Eb|------------------------------------------------------------------------------|
Bb|------------------------------------------------------------------------------|
Gb|------------------------------------------------------------------------------|
Db|-12-12-12-12-12-12--8-8-8-8-8-8-8-8-8-8----3/5-5-5-5-5-5-5-5-5-5-5-5-5--------|
Ab|-12-12-12-12-12-12--8-8-8-8-8-8-8-8-8-8----3/5-5-5-5-5-5-7-7-7-7-7p5-5--------|
Db|-12-12-12-12-12-12--8-8-8-8-8-8-8-8-8-8----3/5-5-5-5-5-5-5-5-5-5-5-5-5--------|

Eb|------------------------------------------------------------------------------|
Bb|------------------------------------------------------------------------------|
Gb|------------------------------------------------------------------------------|
Db|-12-12-12-12-12-12--8-8-8-8-8-8-8-8-8-8----7-----7-----7-----7-----7---7------|
Ab|-12-12-12-12-12-12--8-8-8-8-8-8-8-8-8-8----7-----7-----7-----7-----7---7------|
Db|-12-12-12-12-12-12--8-8-8-8-8-8-8-8-8-8----7-7-7-7-7-7-7-7-7-7-7-7-7-7-7------|

Eb|------------------------------------------------------------------------------|
Bb|------------------------------------------------------------------------------|
Gb|------------------------------------------------------------------------------| X2
Db|------------------------------------------------------------------------------|
Ab|------------------------------------------------------------------------------|
Db|-3---3---3---3---6---6---0----0------3---3---3---3---6---6---0----7-----------|

Eb|------------------------------------------------------------------------|
Bb|------------------------------------------------------------------------|
Gb|------------------------------------------------------------------------|
Db|------------------------------------------------------------------------|
Ab|-10-------10---------10------------11-------11-----------11-------------|
Db|-10---0---10---0-0---10---0-0------11---0---11---0---0---11---0---0-----|

Eb|------------------------------------------------------------------|
Bb|------------------------------------------------------------------|
Gb|------------------------------------------------------------------|
Db|------------------------------------------------------------------|
Ab|-5-------5---------5------------6-------6-----------6-------------|
Db|-5---0---5---0-0---5---0-0------6---0---6---0---0---6---0---0-----|

Eb|------------------------------------------------------------------------|
Bb|------------------------------------------------------------------------|
Gb|------------------------------------------------------------------------|
Db|------------------------------------------------------------------------|
Ab|-10-------10---------10------------11-------11-----------11-------------|
Db|-10---0---10---0-0---10---0-0------11---0---11---0---0---11---0---0-----|

Eb|------------------------------------------------------------------------------|
Bb|------------------------------------------------------------------------------|
Gb|------------------------------------------------------------------------------|
Db|-----------------------------------------5----5---5---5-----6----6---6---6----|
Ab|-13-------13-----------13----------------5----5---5---5-----6----6---6---6----|
Db|-13---0---13---0---0---13---0---0--------5----5---5---5-----6----6---6---6----|

Eb|------------------------------|
Bb|------------------------------|
Gb|------------------------------|
Db|-0----------------------------|
Ab|-0----------------------------|
Db|-0----------------------------|

Eb|-17----------------------17-------------------------|
Bb|-------18----------------------18-------------------|
Gb|-------------21----------------------21-------------|
Db|---------------------------------------------22-----|
Ab|----------------------------------------------------|
Db|----------------------------------------------------|

Palm Mute

Eb|--------------------------------------------------------------------------------------------------|
Bb|--------------------------------------------------------------------------------------------------|
Gb|--------------------------------------------------------------------------------------------------| X2
Db|-7--7--7--7--7--7--6--6--6--6--6--6--6--6--5--5--5--5--5--5--3--3--3--3--3--3--1--1--1--1---------|
Ab|--------------------------------------------------------------------------------------------------|
Db|--------------------------------------------------------------------------------------------------|

Eb|------------------------------------------------------------------------|
Bb|------------------------------------------------------------------------|
Gb|------------------------------------------------------------------------|
Db|------------------------------------------------------------------------|
Ab|-10-------10---------10------------11-------11-----------11-------------|
Db|-10---0---10---0-0---10---0-0------11---0---11---0---0---11---0---0-----|

Eb|------------------------------------------------------------------|
Bb|------------------------------------------------------------------|
Gb|------------------------------------------------------------------|
Db|------------------------------------------------------------------|
Ab|-5-------5---------5------------6-------6-----------6-------------|
Db|-5---0---5---0-0---5---0-0------6---0---6---0---0---6---0---0-----|

Eb|------------------------------------------------------------------------|
Bb|------------------------------------------------------------------------|
Gb|------------------------------------------------------------------------|
Db|------------------------------------------------------------------------|
Ab|-10-------10---------10------------11-------11-----------11-------------|
Db|-10---0---10---0-0---10---0-0------11---0---11---0---0---11---0---0-----|

Eb|------------------------------------------------------------------------------|
Bb|------------------------------------------------------------------------------|
Gb|------------------------------------------------------------------------------|
Db|-----------------------------------------5----5---5---5-----6----6---6---6----|
Ab|-13-------13-----------13----------------5----5---5---5-----6----6---6---6----|
Db|-13---0---13---0---0---13---0---0--------5----5---5---5-----6----6---6---6----|

Eb|------------------------------------------------------------------------------|
Bb|------------------------------------------------------------------------------|
Gb|------------------------------------------------------------------------------|
Db|-12-12-12-12-12-12--8-8-8-8-8-8-8-8-8-8----3/5-5-5-5-5-5-5-5-5-5-5-5-5--------|
Ab|-12-12-12-12-12-12--8-8-8-8-8-8-8-8-8-8----3/5-5-5-5-5-5-7-7-7-7-7p5-5--------|
Db|-12-12-12-12-12-12--8-8-8-8-8-8-8-8-8-8----3/5-5-5-5-5-5-5-5-5-5-5-5-5--------|

Eb|------------------------------------------------------------------------------|
Bb|------------------------------------------------------------------------------|
Gb|------------------------------------------------------------------------------|
Db|-12-12-12-12-12-12--8-8-8-8-8-8-8-8-8-8----7-----7-----7-----7-----7---7------|
Ab|-12-12-12-12-12-12--8-8-8-8-8-8-8-8-8-8----7-----7-----7-----7-----7---7------|
Db|-12-12-12-12-12-12--8-8-8-8-8-8-8-8-8-8----7-7-7-7-7-7-7-7-7-7-7-7-7-7-7------|

Eb|------------------------------------------------------------------------------|
Bb|------------------------------------------------------------------------------|
Gb|------------------------------------------------------------------------------| X2
Db|------------------------------------------------------------------------------|
Ab|------------------------------------------------------------------------------|
Db|-3---3---3---3---6---6---0----0------3---3---3---3---6---6---0----7-----------|


Pre Solo
Eb|-----------------------------------------------------------------------------------------------|
Bb|-----------------------------------------------------------------------------------------------|
Gb|-----------------------------------------------------------------------------------------------| X2
Db|-----------------------------------------------------------------------------------------------|
Ab|-12-12-12-12-12-12-11-11-11-11-11-11-11-11-11-11-10-10-10-10-10-10-8-8-8-8-8-8-6-6-6-6---------|
Db|-12-12-12-12-12-12-11-11-11-11-11-11-11-11-11-11-10-10-10-10-10-10-8-8-8-8-8-8-6-6-6-6---------|

Solo

Eb|----------------------------------13h15p13p12------------------------------------------------------------------|
Bb|-17br--t22-10/11\10--t18/20--17~--------------15p13p11h13h15--11h13h15-11-----------10h11h13-10----------------|
Gb|--------------------------------------------------------------------------14-12-10~-------------12-10-9-12-9b--|
Db|---------------------------------------------------------------------------------------------------------------|
Ab|---------------------------------------------------------------------------------------------------------------|
Db|---------------------------------------------------------------------------------------------------------------|

Eb|--------------------------------------------------------------------------------------------------------------|
Bb|-10-------------12--10--------------12--10--13/15-\13--/15--t19-p13b15r-p10-t13p10t13p10t13p10t13p10----------|
Gb|-10-------------12--10--------------12--10--------------------------------------------------------------------|
Db|----12-10--------------12--10---------------------------------------------------------------------------------|
Ab|----------12-10---------------12-10---------------------------------------------------------------------------|
Db|--------------------------------------------------------------------------------------------------------------|

Eb|------------------------------------------------------------------------------|
Bb|-(b-t13p10t13p10t13p10t13p10)-------------------------------------------------|
Gb|------------------------------------------------------------------------------|
Db|------------------------------------------------------------------------------|
Ab|------------------------------------------------------------------------------|
Db|------------------------------------------------------------------------------|

Eb|------------------------------------------------------------------------------|
Bb|------------------------------------------------------------------------------|
Gb|------------------------------------------------------------------------------|
Db|-12-12-12-12-12-12--8-8-8-8-8-8-8-8-8-8----3/5-5-5-5-5-5-5-5-5-5-5-5-5--------|
Ab|-12-12-12-12-12-12--8-8-8-8-8-8-8-8-8-8----3/5-5-5-5-5-5-7-7-7-7-7p5-5--------|
Db|-12-12-12-12-12-12--8-8-8-8-8-8-8-8-8-8----3/5-5-5-5-5-5-5-5-5-5-5-5-5--------|

Eb|------------------------------------------------------------------------------|
Bb|------------------------------------------------------------------------------|
Gb|------------------------------------------------------------------------------|
Db|-12-12-12-12-12-12--8-8-8-8-8-8-8-8-8-8----7-----7-----7-----7-----7---7------|
Ab|-12-12-12-12-12-12--8-8-8-8-8-8-8-8-8-8----7-----7-----7-----7-----7---7------|
Db|-12-12-12-12-12-12--8-8-8-8-8-8-8-8-8-8----7-7-7-7-7-7-7-7-7-7-7-7-7-7-7------|

Eb|------------------------------------------------------------------------------|
Bb|------------------------------------------------------------------------------|
Gb|------------------------------------------------------------------------------|
Db|-12-12-12-12-12-12--8-8-8-8-8-8-8-8-8-8----3/5-5-5-5-5-5-5-5-5-5-5-5-5--------|
Ab|-12-12-12-12-12-12--8-8-8-8-8-8-8-8-8-8----3/5-5-5-5-5-5-7-7-7-7-7p5-5--------|
Db|-12-12-12-12-12-12--8-8-8-8-8-8-8-8-8-8----3/5-5-5-5-5-5-5-5-5-5-5-5-5--------|

Eb|------------------------------------------------------------------------------|
Bb|------------------------------------------------------------------------------|
Gb|------------------------------------------------------------------------------|
Db|-12-12-12-12-12-12--8-8-8-8-8-8-8-8-8-8----7-----7-----7-----7-----7---7------|
Ab|-12-12-12-12-12-12--8-8-8-8-8-8-8-8-8-8----7-----7-----7-----7-----7---7------|
Db|-12-12-12-12-12-12--8-8-8-8-8-8-8-8-8-8----7-7-7-7-7-7-7-7-7-7-7-7-7-7-7------|

Eb|------------------------------------------------------------------------------|
Bb|------------------------------------------------------------------------------|
Gb|------------------------------------------------------------------------------| X3
Db|------------------------------------------------------------------------------|
Ab|------------------------------------------------------------------------------|
Db|-3---3---3---3---6---6---0----0------3---3---3---3---6---6---0----7-----------|

Eb|-------------------------------------------------------------------------|
Bb|-------------------------------------------------------------------------|
Gb|-------------------------------------------------------------------------|
Db|-------------------------------------------------------------7-----------|
Ab|-------------------------------------------------------------7-----------|
Db|-3---3---3---3---6---6---0----0------3---3---3---3---6---6---7-----------|
Acordes para:
    Composição: Corey TaylorColaboração e revisão:
    • Antonio Constantino

    0 comentários

      mostrar mais comentários

      Conseguiu tocar?

      0tocaram0ainda não

      Grave um vídeo tocando Fabuless e mande pra gente!

      00:00 / 00:00
      outros vídeos desta música
      repetirqualidadeautomática
      Outro vídeos desta música
        00:00 / 00:00
        automática
        OK