Cifra Club

Get Inside

Stone Sour

Cifra: Principal
exibições 11.923
Tom: C
|-----------------------------|------||-----------|
|-----------------------------|-----o||-----------|
|-----------------------------|------||-----------|
|-----------------------------|------||-----------|
|-----------------------------|-----o||-5-6--1-2--|
|-2-1-1-1-2-1-1-1-2-1-2-1-1-1-|-5-6--||-5-6--1-2--|


    PM--|       PM|             PM--|       PM|
|-------------------------------------------------------||--|
|------------------------------------------------------o||--|
|-------------------------------------------------------||--|
|----------------------------------------------------*5-||--| *= AH
|-0-------6-5-0-----1-0-1-0---0-------6-5-0------5-6---o||--|
|-0-0-0-0-6-5-0-0-0-1-0-1-0---0-0-0-0-6-5-0-0-0---------||--|

|----------------------------------------||--|
|---------------------------------------o||--|
|----------------------------------------||--|
|----------------------------------------||--|
|-0-0-0-0-0-0-------0-0-0-0-0-0----*6-*5o||--|
|-0-0-0-0-0-0-0-1-5-0-0-0-0-0-0-2-1------||--|


                                          ~
|-----------------|--------------------------|
|-----------------|--------------------------|
|-8-7-8-7-8-7-8-7-|-8-7-8-7-8-7--------------|
|-8-7-8-7-8-7-8-7-|-8-7-8-7-8-7--------------|
|-6-5-6-5-6-5-6-5-|-6-5-6-5-6-5--------*6-*5-|
|-----------------|-------------0-1-6-5------|

|-------------------------||--|
|------------------------o||--|
|-------------------------||--|
|-3-5-0--3-0-3-5----------||--|
|-3-5-0--3-0-3-5---------o||--|
|-3-5-0--3-0-3-5--5-6-5-0-||--| PM= Palm Mute
   /          /  PM......        /=slide

  PM------------|
|------------------||------------------||--|
|-----------------o||-----------------o||--|
|------------------||------------------||--|
|------------------||------------------||--|
|-----------------o||-5-6-5-0-3-0-3-5-o||--|  PM = Palm Mute
|-5-6-5-0-3-0-3-5--||-5-6-5-0-3-0-3-5--||--|
Acordes para:
    Composição: Stone SourColaboração e revisão:
    • Paulo Victor

    0 comentários

      mostrar mais comentários

      Conseguiu tocar?

      1tocaram0ainda não

      Grave um vídeo tocando Get Inside e mande pra gente!

      00:00 / 00:00
      outros vídeos desta música
      repetirqualidadeautomática
      Outro vídeos desta música
        00:00 / 00:00
        automática
        OK