Cifra Club

Aprenda

Inhale

Stone Sour

Cifra: Principal (violão e guitarra)
tom: B
IMPORTANTE: A afinação dos guitarristas nessa musica eu desconheço,
 então cifrei pra se tocar afinado em E mesmo! Pode ser C# ou D, 
afinaçao baixa, como a maioria das bandas do genero ... ou talvez 
seja E mesmo ...

Intro: -Jim- 2x

E:-------------------------------------------------------------- 
B:-------------------------------------------------------------- 
G:-------------------------------------------------------------- 
D:-----4-3------------------------------------------------------
A:--2------4-5--------------------------------------------------
E:--------------------------------------------------------------

A partir dos 5 segundos de musica entra a segunda guitarra, junto com esse solinho inicial feito pelo Jim ...

(0:05)

-Jim-
E:-------------------------------------------------------------- 
B:-------------------------------------------------------------- 
G:-------------------------------------------------------------- 
D:----4-3----------4-3----------4-3---------4-3-----------------
A:--2------4-5---2------4-5---2-----4-5---2-----4-5-------------
E:--------------------------------------------------------------


-Josh- 
E:-------------------------------------------------------------- 
B:-------------------------------------------------------------- 
G:-------------------------------------------------------------- 
D:--4-----------------------------------------------------------
A:--2-------------7-----------2------------5--------------------
E:----------------5-----------0------------3--------------------

(0:15) 

-Jim e Josh- 4x
E:-------------------------------------------------------------- 
B:-------------------------------------------------------------- 
G:-------------------------------------------------------------- 
D:--------------------------------------------------------------
A:--9--9--8--4--5-----------------------------------------------
E:--7--9--8--4--5-----------------------------------------------

(0:25)

-Josh-
E:-------------------------------------------------------------- 
B:-------------------------------------------------------------- 
G:-------------------------7--6--------------------------------- 
D:--4--------------4--------------4-----------------------------
A:--2--------------2-------5--4---2-----------------------------
E:--------------------------------------------------------------

-Jim-
E:-------------------------------------------------------------- 
B:-------------------------------------------------------------- 
G:-------------------------------------------------------------- 
D:--4--------------4--------------4-----------------------------
A:--2--------------2------/5--/4--2-----------------------------
E:------------------------/5--/4--------------------------------

(0:35)

-Josh-
E:-------------------------------------------------------------- 
B:-------------------------------------------------------------- 
G:-------------------------7--9--7------------------------------ 
D:--4--------------4-----------------4--------------------------
A:--2--------------2-------5--7--5---2--------------------------
E:--------------------------------------------------------------

-Jim-
E:-------------------------------------------------------------- 
B:-------------------------------------------------------------- 
G:-------------------------------------------------------------- 
D:--4--------------4--------------4-----------------------------
A:--2--------------2------/5--/4--2-----------------------------
E:------------------------/5--/4--------------------------------

(0:45)

-Josh-
E:-------------------------------------------------------------- 
B:-------------------------------------------------------------- 
G:-------------------------7--6--------------------------------- 
D:--4--------------4--------------4-----------------------------
A:--2--------------2-------5--4---2-----------------------------
E:--------------------------------------------------------------

-Jim-
E:-------------------------------------------------------------- 
B:-------------------------------------------------------------- 
G:-------------------------------------------------------------- 
D:--4--------------4--------------4-----------------------------
A:--2--------------2------/5--/4--2-----------------------------
E:------------------------/5--/4--------------------------------

(0:55)

-Jim e Josh- 
E:-------------------------------------------------------------- 
B:-------------------------------------------------------------- 
G:-------------------------------------------------------------- 
D:--------------------------------------------------------------
A:--2-2-2-2-2-2-2-2-2-2-2-2-2-2---------------------------------
E:--0-0-0-0-0-0-0-0-0-0-0-0-0-0---------------------------------

(1:05)
Refrão (2 vezes)
 
-Jim-
E:-------------------------------------------------------------- 
B:-------------------------------------------------------------- 
G:-------------------------------------------------------------- 
D:----4-3----------4-3----------4-3---------4-3-----------------
A:--2------4-5---2------4-5---2-----4-5---2-----4-5-------------
E:--------------------------------------------------------------


-Josh- 
E:-------------------------------------------------------------- 
B:-------------------------------------------------------------- 
G:-------------------------------------------------------------- 
D:--4-----------------------------------------------------------
A:--2-------------7-----------2------------5--------------------
E:----------------5-----------0------------3--------------------

(1:25)

Repete as primeiras partes, ateh o refrão ...

(2:28)

-Jim e Josh- 
E:-------------------------------------------------------------- 
B:-------------------------------------------------------------- 
G:-------------------------------------------------------------- 
D:--4-----------------------------------------------------------
A:--2-----------------------------------------------------------
E:--------------------------------------------------------------

(2:37) 
Bridge

-Jim e Josh- 
E:-------------------------------------------------------------- 
B:-------------------------------------------------------------- 
G:-------------------------------------------------------------- 
D:--5-5-5-5---7-7-7-7---------5---7-----------------------------
A:--5-5-5-5---7-7-7-7---2-----5---7---2-------------------------
E:--3-3-3-3---5-5-5-5---0-----3---5---0-------------------------

(2:47)
-Jim e Josh- 
E:-------------------------------------------------------------- 
B:-------------------------------------------------------------- 
G:-------------------------------------------------------------- 
D:--5-5-5-5---7-7-7-7---------5---7-----------------------------
A:--5-5-5-5---7-7-7-7---2-----5---7---2---/2-/2-/2-/2-/2-/2-/2-/2-/2
E:--3-3-3-3---5-5-5-5---0-----3---5---0---/0-/0-/0-/0-/0-/0-/0-/0-/0

(3:01)

Volta pro Refrão ...

(3:42)

-Jim e Josh- 4x
E:-------------------------------------------------------------- 
B:-------------------------------------------------------------- 
G:-------------------------------------------------------------- 
D:--------------------------------------------------------------
A:--9--9--8--4--5-----------------------------------------------
E:--7--9--8--4--5-----------------------------------------------

(3:52)

-Jim e Josh- 
E:-------------------------------------------------------------- 
B:-------------------------------------------------------------- 
G:-------------------------------------------------------------- 
D:--4-----------------------------------------------------------
A:--2-----------------------------------------------------------
E:--------------------------------------------------------------

FIM!

Se vc estiver enfrentando algum problema, não fique bravo, não jogue 
a guitarra longe, não me xingue, nem minha mãe, nem meu pai e nem 
minha família, hahaha, simplesmente me mande um e mail e fale onde 
vc acha que está errado, hehe!
Composição de Stone Sour
20.431 exibições
    • ½ Tom
    • A
    • Bb
    • B
    • C
    • Db
    • D
    • Eb
    • E
    • F
    • F#
    • G
    • Ab
  • Adicionar à lista

    0 comentários

    Ver todos os comentários
    00:00 / 00:00
    Outros vídeos desta música
    Repetir Qualidade Automático
    Outros vídeos desta música
    00:00 / 00:00
    Automático

    Cifra Club Pro

    Aproveite o Cifra Club com benefícios exclusivos e sem anúncios
    Cifra Club Pro
    Aproveite o Cifra Club com benefícios exclusivos e sem anúncios
    OK