Cifra Club

Aprenda

Mission Statement

Stone Sour

Cifra: Principal (violão e guitarra)
tom: A
E|----------------------------|----------------------------|
B|----------------------------|----------------------------|
G|--7s-8s-7-------------------|--7s-8s----11----8s-7s-8s---|
D|--x--x--x-------------------|--x--x-----x-----x--x--x----|
A|--5s-6s-5-------------------|--5s-6s----9-----6s-5s-6s---|
D|----------------------------|----------------------------|

----------------------------|----------------------------|
----------------------------|----------------------------|
--7s-8s-7-------------------|--2--------4--------1-------|
--x--x--x-------------------|--2--------4--------1-------|
--5s-6s-5-------------------|--0--------2----------------|
----------------------------|----------------------------|

----------------------------|----------------------------|
----------------------------|----------------------------|
--7s-8s-7-------------------|--7s-8s----11----8s-7s-8s---|
--x--x--x-------------------|--x--x-----x-----x--x--x----|
--5s-6s-5-------------------|--5s-6s----9-----6s-5s-6s---|
----------------------------|----------------------------|

----------------------------|----------------------------|
----------------------------|----------------------------|
--7s-8s-7-------------------|--2--------4--------1-------|
--x--x--x-------------------|--2--------4--------1-------|
--5s-6s-5-------------------|--0--------2----------------|
----------------------------|----------------------------|

----------------------------------------------------|
----------------------------------------------------|
----------------------------------------------------|
----------------------------------------------------|
----------------------------------------------------|
--0-----0-----0-----0-----0--0--0--0--0-----0-------|

----------------------------|
----------------------------|
----------------------------|
----------------------------|
----------------------------|
--8--7--0--8--0--8--8--11---|

----------------------------------------------------|
----------------------------------------------------|
----------------------------------------------------|
----------------------------------------------------|
----------------------------------------------------|
--0-----0-----0-----0-----0--0--0--0--0-----0-------|

----------------------------|
----------------------------|
----------------------------|
----------------------------|
--10------------------------|
-----16-13-12-16-13-12-10---|

----------------------------------------------------|
----------------------------------------------------|
----------------------------------------------------|
----------------------------------------------------|
----------------------------------------------------|
--0-----0-----0-----0-----0--0--0--0--0-----0-------|

----------------------------|
----------------------------|
----------------------------|
----------------------------|
----------------------------|
--8--7--0--8--0--8--8--11---|

----------------------------------------------------|
----------------------------------------------------|
----------------------------------------------------|
----------------------------------------------------|
----------------------------------------------------|
--0-----0-----0-----0-----0--0--0--0--0-----0-------|

----------------------------|----------------------------|
----------------------------|----------------------------|
----------------------------|----------------------------|
----------------------------|----------------------------|
--10------------------------|--9-------------------------|
-----16-13-12-16-13-12-10---|-----0--0--12-0--13-0--0----|

----------------------------|----------------------------|
----------------------------|----------------------------|
----------------------------|----------------------------|
----------------------------|----------------------------|
----------------------------|--9-------------------------|
--12-16-8--13-12-13-0--0----|-----0--0--12-0--13-0--0----|

----------------------------|----------------------------|
----------------------------|----------------------------|
----------------------------|----------------------------|
----------------------------|----------------------------|
----------------------------|--9-------------------------|
--7--8--12-0--10-12-0--0----|-----0--0--12-0--13-0--0----|

----------------------------|----------------------------|
----------------------------|----------------------------|
----------------------------|----------------------------|
----------------------------|----------------------------|
----------------------------|--9-------------------------|
--12-16-8--13-12-13-0--0----|-----0--0--12-0--13-0--0----|

----------------------------|----------------------------|
----------------------------|----------------------------|
----------------------------|----------------------------|
----------------------------|----------------------------|
----------------------------|--9-------------------------|
--7--8--12-0--10-12-0--0----|-----0--0--12-0--13-0--0----|

----------------------------|----------------------------|
----------------------------|----------------------------|
----------------------------|----------------------------|
----------------------------|----------------------------|
----------------------------|--9-------------------------|
--12-16-8--13-12-13-0--0----|-----0--0--12-0--13-0--0----|

----------------------------|----------------------------|
----------------------------|----------------------------|
----------------------------|----------------------------|
----------------------------|----------------------------|
----------------------------|--9-------------------------|
--7--8--12-0--10-12-0--0----|-----0--0--12-0--13-0--0----|

----------------------------|----------------------------|
----------------------------|----------------------------|
----------------------------|----------------------------|
----------------------------|----------------------------|
----------------------------|--9-------------------------|
--12-16-8--13-12-13-0--0----|-----0--0--12-0--13-0--0----|

----------------------------|----------------------------|
----------------------------|----------------------------|
-----------5----------------|--2--2--2--3--3--3--3--3----|
--3--2--3-----3--2--3--0----|--x--x--x--2--2--2--2--2----|
----------------------------|--0--0--0--0--0--0--0--0----|
----------------------------|----------------------------|

----------------------------|----------------------------|
----------------------------|----------------------------|
--2--2--2--3--5--5--5--5----|--2--2--2--3--3--3--3--3----|
--x--x--x--2--x--x--x--x----|--x--x--x--2--2--2--2--2----|
--0--0--0--0--3--3--3--3----|--0--0--0--0--0--0--0--0----|
----------------------------|----------------------------|

----------------------------|----------------------------|
----------------------------|----------------------------|
--2--2--2--3--5--5--5--5----|--7--7--7--5--5--5--5--5----|
--x--x--x--2--x--x--x--x----|--x--x--x--x--x--x--x--x----|
--0--0--0--0--3--3--3--3----|--5--5--5--3--3--3--3--3----|
----------------------------|----------------------------|

----------------------------|----------------------------|
----------------------------|----------------------------|
--7--7--7--5--10-10-10-10---|--7--7--7--5--5--5--5--5----|
--x--x--x--x--x--x--x--x----|--x--x--x--x--x--x--x--x----|
--5--5--5--3--7--7--7--7----|--5--5--5--3--3--3--3--3----|
----------------------------|----------------------------|

----------------------------------------------------|
----------------------------------------------------|
--------------7-----------------------7-------------|
--2--3--5--3-----3--2--3--2--3--5--3----------------|
----------------------------------------------------|
----------------------------------------------------|

----------------------------|----------------------------|
----------------------------|----------------------------|
--7--7--7--7--5--7--7--3L---|--3--3--3--3--3--3--3--3----|
--7--7--7--7--5--7--7--3L---|--3--3--3--3--3--3--3--3----|
--5--5--5--5--5--5--5--1L---|--1--1--1--1--1--0--1--0----|
----------------------------|----------------------------|

----------------------------|----------------------------|
----------------------------|----------------------------|
----------------------------|----------------------------|
--5--5--5--5--5--5--5--1L---|--1--1--1--1--1--1--1--1----|
--5--5--5--5--5--5--5--1L---|--1--1--1--1--1--1--1--1----|
--5--5--5--5--5--5--5--1L---|--1--1--1--1--1--1--1--1----|

----------------------------|----------------------------|
----------------------------|----------------------------|
--7--7--7--7--5--7--7--3L---|--3--3--3--3--3--3--3--3----|
--7--7--7--7--5--7--7--3L---|--3--3--3--3--3--3--3--3----|
--5--5--5--5--5--5--5--1L---|--1--1--1--1--1--0--1--0----|
----------------------------|----------------------------|

----------------------------|----------------------------|
----------------------------|----------------------------|
----------------------------|----------------------------|
--5--5--5--5--5--5--5--1L---|--1--1--1--1--1--1--1--1----|
--5--5--5--5--5--5--5--1L---|--1--1--1--1--1--1--1--1----|
--5--5--5--5--5--5--5--1L---|--1--1--1--1--1--1--1--1----|

----------------------------|----------------------------|-------|
----------------------------|----------------------------|-------|
----------------------------|----------------------------|-------|
--0--1--0-------------------|--0--1-----4-----1--0--1----|--0----|
--0--1--0-------------------|--0--1-----4-----1--0--1----|--0----|
--0--1--0-------------------|--0--1-----4-----1--0--1----|--0----|

----------------------------|----------------------------|
----------------------------|----------------------------|
--2--------4--------1-------|----------------------------|
--2--------4--------1-------|--0--1--0-------------------|
--0--------2----------------|--0--1--0-------------------|
----------------------------|--0--1--0-------------------|

----------------------------|-------|----------------------------|
----------------------------|-------|----------------------------|
----------------------------|-------|--2--------4--------1-------|
--0--1-----4-----1--0--1----|--0----|--2--------4--------1-------|
--0--1-----4-----1--0--1----|--0----|--0--------2----------------|
--0--1-----4-----1--0--1----|--0----|----------------------------|

----------------------------------------------------|
----------------------------------------------------|
----------------------------------------------------|
----------------------------------------------------|
----------------------------------------------------|
--0-----0-----0-----0-----0--0--0--0--0-----0-------|

----------------------------|
----------------------------|
----------------------------|
----------------------------|
----------------------------|
--8--7--0--8--0--8--8--11---|

----------------------------------------------------|
----------------------------------------------------|
----------------------------------------------------|
----------------------------------------------------|
----------------------------------------------------|
--0-----0-----0-----0-----0--0--0--0--0-----0-------|

----------------------------|
----------------------------|
----------------------------|
----------------------------|
--10------------------------|
-----16-13-12-16-13-12-10---|

----------------------------------------------------|
----------------------------------------------------|
----------------------------------------------------|
----------------------------------------------------|
----------------------------------------------------|
--0-----0-----0-----0-----0--0--0--0--0-----0-------|

----------------------------|
----------------------------|
----------------------------|
----------------------------|
----------------------------|
--8--7--0--8--0--8--8--11---|

----------------------------------------------------|
----------------------------------------------------|
----------------------------------------------------|
----------------------------------------------------|
----------------------------------------------------|
--0-----0-----0-----0-----0--0--0--0--0-----0-------|

----------------------------|----------------------------|
----------------------------|----------------------------|
----------------------------|----------------------------|
----------------------------|----------------------------|
--10------------------------|--9-------------------------|
-----16-13-12-16-13-12-10---|-----0--0--12-0--13-0--0----|

----------------------------|----------------------------|
----------------------------|----------------------------|
----------------------------|----------------------------|
----------------------------|----------------------------|
----------------------------|--9-------------------------|
--12-16-8--13-12-13-0--0----|-----0--0--12-0--13-0--0----|

----------------------------|----------------------------|
----------------------------|----------------------------|
----------------------------|----------------------------|
----------------------------|----------------------------|
----------------------------|--9-------------------------|
--7--8--12-0--10-12-0--0----|-----0--0--12-0--13-0--0----|

----------------------------|----------------------------|
----------------------------|----------------------------|
----------------------------|----------------------------|
----------------------------|----------------------------|
----------------------------|--9-------------------------|
--12-16-8--13-12-13-0--0----|-----0--0--12-0--13-0--0----|

----------------------------|----------------------------|
----------------------------|----------------------------|
----------------------------|----------------------------|
----------------------------|----------------------------|
----------------------------|--9-------------------------|
--7--8--12-0--10-12-0--0----|-----0--0--12-0--13-0--0----|

----------------------------|----------------------------|
----------------------------|----------------------------|
----------------------------|----------------------------|
----------------------------|----------------------------|
----------------------------|--9-------------------------|
--12-16-8--13-12-13-0--0----|-----0--0--12-0--13-0--0----|

----------------------------|----------------------------|
----------------------------|----------------------------|
----------------------------|----------------------------|
----------------------------|----------------------------|
----------------------------|--9-------------------------|
--7--8--12-0--10-12-0--0----|-----0--0--12-0--13-0--0----|

----------------------------|----------------------------|
----------------------------|----------------------------|
----------------------------|----------------------------|
----------------------------|----------------------------|
----------------------------|--9-------------------------|
--12-16-8--13-12-13-0--0----|-----0--0--12-0--13-0--0----|

----------------------------|----------------------------|
----------------------------|----------------------------|
-----------5----------------|--2--2--2--3--3--3--3--3----|
--3--2--3-----3--2--3--0----|--x--x--x--2--2--2--2--2----|
----------------------------|--0--0--0--0--0--0--0--0----|
----------------------------|----------------------------|

----------------------------|----------------------------|
----------------------------|----------------------------|
--2--2--2--3--5--5--5--5----|--2--2--2--3--3--3--3--3----|
--x--x--x--2--x--x--x--x----|--x--x--x--2--2--2--2--2----|
--0--0--0--0--3--3--3--3----|--0--0--0--0--0--0--0--0----|
----------------------------|----------------------------|

----------------------------|----------------------------|
----------------------------|----------------------------|
--2--2--2--3--5--5--5--5----|--7--7--7--5--5--5--5--5----|
--x--x--x--2--x--x--x--x----|--x--x--x--x--x--x--x--x----|
--0--0--0--0--3--3--3--3----|--5--5--5--3--3--3--3--3----|
----------------------------|----------------------------|

----------------------------|----------------------------|
----------------------------|----------------------------|
--7--7--7--5--10-10-10-10---|--7--7--7--5--5--5--5--5----|
--x--x--x--x--x--x--x--x----|--x--x--x--x--x--x--x--x----|
--5--5--5--3--7--7--7--7----|--5--5--5--3--3--3--3--3----|
----------------------------|----------------------------|

----------------------------------------------------|
----------------------------------------------------|
--------------7-----------------------7-------------|
--2--3--5--3-----3--2--3--2--3--5--3----------------|
----------------------------------------------------|
----------------------------------------------------|

----------------------------|----------------------------|
----------------------------|----------------------------|
--7--7--7--7--5--7--7--3L---|--3--3--3--3--3--3--3--3----|
--7--7--7--7--5--7--7--3L---|--3--3--3--3--3--3--3--3----|
--5--5--5--5--5--5--5--1L---|--1--1--1--1--1--0--1--0----|
----------------------------|----------------------------|

----------------------------|----------------------------|
----------------------------|----------------------------|
----------------------------|----------------------------|
--5--5--5--5--5--5--5--1L---|--1--1--1--1--1--1--1--1----|
--5--5--5--5--5--5--5--1L---|--1--1--1--1--1--1--1--1----|
--5--5--5--5--5--5--5--1L---|--1--1--1--1--1--1--1--1----|

----------------------------|----------------------------|
----------------------------|----------------------------|
--7--7--7--7--5--7--7--3L---|--3--3--3--3--3--3--3--3----|
--7--7--7--7--5--7--7--3L---|--3--3--3--3--3--3--3--3----|
--5--5--5--5--5--5--5--1L---|--1--1--1--1--1--0--1--0----|
----------------------------|----------------------------|

----------------------------|----------------------------|
----------------------------|----------------------------|
----------------------------|----------------------------|
--5--5--5--5--5--5--5--1L---|--1--1--1--1--1--1--1--1----|
--5--5--5--5--5--5--5--1L---|--1--1--1--1--1--1--1--1----|
--5--5--5--5--5--5--5--1L---|--1--1--1--1--1--1--1--1----|

----------------------------|----------------------------|-------|
----------------------------|----------------------------|-------|
----------------------------|----------------------------|-------|
--0--1--0-------------------|--0--1-----4-----1--0--1----|--0----|
--0--1--0-------------------|--0--1-----4-----1--0--1----|--0----|
--0--1--0-------------------|--0--1-----4-----1--0--1----|--0----|

----------------------------|----------------------------|
----------------------------|----------------------------|
--2--------4--------1-------|----------------------------|
--2--------4--------1-------|--0--1--0-------------------|
--0--------2----------------|--0--1--0-------------------|
----------------------------|--0--1--0-------------------|

----------------------------|-------|----------------------------|
----------------------------|-------|----------------------------|
----------------------------|-------|--2--------4--------1-------|
--0--1-----4-----1--0--1----|--0----|--2--------4--------1-------|
--0--1-----4-----1--0--1----|--0----|--0--------2----------------|
--0--1-----4-----1--0--1----|--0----|----------------------------|

----------------------------------------------------|
----------------------------------------------------|
----------------------------------------------------|
----------------------------------------------------|
----------------------------------------------------|
--0-----0-----0-----0-----0--0--0--0--0-----0-------|

----------------------------|
----------------------------|
----------------------------|
----------------------------|
----------------------------|
--8--7--0--8--0--8--8--11---|

----------------------------------------------------|
----------------------------------------------------|
----------------------------------------------------|
----------------------------------------------------|
----------------------------------------------------|
--0-----0-----0-----0-----0--0--0--0--0-----0-------|

----------------------------|
----------------------------|
----------------------------|
----------------------------|
--10------------------------|
-----13-12-10-13-8--7--5----|

----------------------------------------------------|
----------------------------------------------------|
----------------------------------------------------|
----------------------------------------------------|
----------------------------------------------------|
--0-----0-----0-----0-----0--0--0--0--0-----0-------|

----------------------------|
----------------------------|
----------------------------|
----------------------------|
----------------------------|
--8--7--0--8--0--8--8--11---|

----------------------------------------------------|
----------------------------------------------------|
----------------------------------------------------|
----------------------------------------------------|
----------------------------------------------------|
--0-----0-----0-----0-----0--0--0--0--0-----0-------|

----------------------------|----------------------------|
----------------------------|----------------------------|
----------------------------|----------------------------|
----------------------------|----------------------------|
--10------------------------|----------------------------|
-----13-12-10-13-8--7--5----|--0M-0M-0M-0M-0M-0M-0M-0M---|

----------------------------|----------------------------|
----------------------------|----------------------------|
----------------------------|----------------------------|
----------------------------|----------------------------|
----------------------------|----------------------------|
--0M-0M-0M-0M-0M-0M-0M-0M---|--0M-0M-0M-0M-0M-0M-0M-0M---|

----------------------------|----------------------------|
----------------------------|----------------------------|
----------------------------|----------------------------|
----------------------------|----------------------------|
--------------5-----1-------|----------------------------|
--0M-0M-0M-0M-5-----1-------|--0M-0M-0M-0M-0M-0M-0M-0M---|

----------------------------|----------------------------|
----------------------------|----------------------------|
----------------------------|----------------------------|
----------------------------|----------------------------|
----------------------------|----------------------------|
--0M-0M-0M-0M-0M-0M-0M-0M---|--0M-0M-0M-0M-0M-0M-0M-0M---|

----------------------------|
----------------------------|
----------------------------|
----------------------------|
--------------5-----1-------|
--0M-0M-0M-0M-5-----1-------|

----------------------------------------------------|
----------------------------------------------------|
----------------------------------------------------|
----------------------------------------------------|
----------------------------------------------------|
--0M-0M-0M----0M-0M-0M----0M-0M-0M----0M-0M-0M------|

----------------------------------------------------|
----------------------------------------------------|
----------------------------------------------------|
----------------------------------------------------|
----------------------------------------------------|
--0M-0M-0M----0M-0M-0M----0M-0M-0M----0M-0M-0M------|

----------------------------------------------------|
----------------------------------------------------|
----------------------------------------------------|
----------------------------------------------------|
----------------------------------------------------|
--0M-0M-0M----0M-0M-0M----0M-0M-0M----0M-0M-0M------|

----------------------------------------------------|
----------------------------------------------------|
----------------------------------------------------|
----------------------------------------------------|
--------------------------5-----------1-------------|
--0M-0M-0M----0M-0M-0M----5-----------1-------------|

----------------------------------------------------|
----------------------------------------------------|
----------------------------------------------------|
----------------------------------------------------|
----------------------------------------------------|
--0M-0M-0M----0M-0M-0M----0M-0M-0M----0M-0M-0M------|

----------------------------------------------------|
----------------------------------------------------|
----------------------------------------------------|
----------------------------------------------------|
----------------------------------------------------|
--0M-0M-0M----0M-0M-0M----0M-0M-0M----0M-0M-0M------|

----------------------------------------------------|
----------------------------------------------------|
----------------------------------------------------|
----------------------------------------------------|
----------------------------------------------------|
--0M-0M-0M----0M-0M-0M----0M-0M-0M----0M-0M-0M------|

----------------------------------------------------|
----------------------------------------------------|
----------------------------------------------------|
----------------------------------------------------|
--------------------------5-----------1-------------|
--0M-0M-0M----0M-0M-0M----5-----------1-------------|

----------------------------|----------------------------|
----------------------------|----------------------------|
----------------------------|----------------------------|
----------------------------|----------------------------|
--------12-------12----12---|--------13-------13----13---|
--12-12----12-12----12------|--12-12----12-12----12------|

----------------------------|----------------------------|
----------------------------|----------------------------|
----------------------------|----------------------------|
----------------------------|----------------------------|
--------10-------10----10---|--------10-------10----10---|
--12-12----12-12----12------|--13-13----13-13----13------|

----------------------------|----------------------------|
----------------------------|----------------------------|
----------------------------|----------------------------|
--------14-------14----14---|--------15-------15----15---|
--12-12----12-12----12------|--12-12----12-12----12------|
----------------------------|----------------------------|

----------------------------|----------------------------|
----------------------------|----------------------------|
----------------------------|----------------------------|
--------12-------12----12---|----------------------------|
--12-12----12-12----12------|--10-10-10-10-10-10-10-10---|
----------------------------|--10M10M10M10M10-10-10-10---|

----------------------------|----------------------------|
----------------------------|----------------------------|
--7--7--7--7--5--7--7--3L---|--3--3--3--3--3--3--3--3----|
--7--7--7--7--5--7--7--3L---|--3--3--3--3--3--3--3--3----|
--5--5--5--5--5--5--5--1L---|--1--1--1--1--1--0--1--0----|
----------------------------|----------------------------|

----------------------------|----------------------------|
----------------------------|----------------------------|
----------------------------|----------------------------|
--5--5--5--5--5--5--5--1L---|--1--1--1--1--1--1--1--1----|
--5--5--5--5--5--5--5--1L---|--1--1--1--1--1--1--1--1----|
--5--5--5--5--5--5--5--1L---|--1--1--1--1--1--1--1--1----|

----------------------------|----------------------------|
----------------------------|----------------------------|
--7--7--7--7--5--7--7--3L---|--3--3--3--3--3--3--3--3----|
--7--7--7--7--5--7--7--3L---|--3--3--3--3--3--3--3--3----|
--5--5--5--5--5--5--5--1L---|--1--1--1--1--1--0--1--0----|
----------------------------|----------------------------|

----------------------------|----------------------------|
----------------------------|----------------------------|
----------------------------|----------------------------|
--5--5--5--5--5--5--5--1L---|--1--1--1--1--1--1--1--1----|
--5--5--5--5--5--5--5--1L---|--1--1--1--1--1--1--1--1----|
--5--5--5--5--5--5--5--1L---|--1--1--1--1--1--1--1--1----|

----------------------------|----------------------------|-------|
----------------------------|----------------------------|-------|
----------------------------|----------------------------|-------|
--0--1--0-------------------|--0--1-----4-----1--0--1----|--0----|
--0--1--0-------------------|--0--1-----4-----1--0--1----|--0----|
--0--1--0-------------------|--0--1-----4-----1--0--1----|--0----|

----------------------------|----------------------------|
----------------------------|----------------------------|
--2--------4--------1-------|----------------------------|
--2--------4--------1-------|--0--1--0-------------------|
--0--------2----------------|--0--1--0-------------------|
----------------------------|--0--1--0-------------------|

----------------------------|-------|----------------------------|
----------------------------|-------|----------------------------|
----------------------------|-------|--2--------4--------1-------|
--0--1-----4-----1--0--1----|--0----|--2--------4--------1-------|
--0--1-----4-----1--0--1----|--0----|--0--------2----------------|
--0--1-----4-----1--0--1----|--0----|----------------------------|

----------------------------|----------------------------|-------|
----------------------------|----------------------------|-------|
----------------------------|----------------------------|-------|
--0--1--0-------------------|--0--1-----4-----1--0--1----|--0----|
--0--1--0-------------------|--0--1-----4-----1--0--1----|--0----|
--0--1--0-------------------|--0--1-----4-----1--0--1----|--0----|

----------------------------|----------------------------|
----------------------------|----------------------------|
--2--------4--------1-------|----------------------------|
--2--------4--------1-------|--0--1--0-------------------|
--0--------2----------------|--0--1--0-------------------|
----------------------------|--0--1--0-------------------|

----------------------------|----------|----------------------------|
----------------------------|----------|----------------------------|
----------------------------|----------|--2--------4--------1-------|
--0--1-----4-----1--0--1----|--0-------|--2--------4--------1-------|
--0--1-----4-----1--0--1----|--0--12s--|--0--------2----------------|
--0--1-----4-----1--0--1----|--0--12s--|----------------------------|

----------------------------||
----------------------------||
----------------------------||
--0--1--0-------------------||
--0--1--0-------------------||
--0--1--0-------------------||

E|----------------------------|-------|----------------------------|-------|
B|----------------------------|-------|----------------------------|-------|
G|----------------------------|-------|----------------------------|-------|
D|--0--1--0L------------------|--0----|--0--1--0L------------------|--0----|
A|--0--1--0L------------------|--0----|--0--1--0L------------------|--0----|
D|--0--1--0L------------------|--0----|--0--1--0L------------------|--0----|

----------------------------|-------|----------------------------|
----------------------------|-------|----------------------------|
----------------------------|-------|----------------------------|
--0--1--0L------------------|--0----|--0--1--0-------------------|
--0--1--0L------------------|--0----|--0--1--0-------------------|
--0--1--0L------------------|--0----|--0--1--0-------------------|

----------------------------|
----------------------------|
--2--------4--------1-------|
--2--------4--------1-------|
--0--------2----------------|
----------------------------|

Composição de Stone Sour
Colaboração e revisão:
  • Sérgio
2.293 exibições
    • ½ Tom
    • A
    • Bb
    • B
    • C
    • Db
    • D
    • Eb
    • E
    • F
    • F#
    • G
    • Ab
  • Adicionar à lista

    0 comentários

    Ver todos os comentários

    Conseguiu tocar?

    0 Tocaram 0 Ainda não

    Grave um vídeo tocando Mission Statement e nos envie!

    00:00 / 00:00
    Outros vídeos desta música
    Repetir Qualidade Automático
    Outros vídeos desta música
    00:00 / 00:00
    Automático

    Cifra Club Pro

    Aproveite o Cifra Club com benefícios exclusivos e sem anúncios
    Cifra Club Pro
    Aproveite o Cifra Club com benefícios exclusivos e sem anúncios
    OK