Cifra Club

Aprenda

Reborn

Stone Sour

Cifra: Principal (violão e guitarra)
tom: D
Album: Come what (Ever)May
Tuning:Drop B (B F# B E G# C#)
Tabbed by: Pricedon 977


Intro (Both Guitars)
C#|-------------------------------------------------------|
G#|-------------------------------------------------------|
E |-------------------------------------------------------|
B |-222222-10-9-10-222-5-8-222222-10-9-10-5-5-5-8-8-8-7-7-|
F#|-222222-10-9-10-222-5-8-222222-10-9-10-5-5-5-8-8-8-7-7-|
B |-222222-10-9-10-222-5-8-222222-10-9-10-5-5-5-8-8-8-7-7-|
    ******         ***     ******         * * * * * * * *

C#|------------------------------------------------------|
G#|------------------------------------------------------|
E |-------------------------------------------9-------8--|
B |-222222-10-9-10-222-5-8-222222-10-9-10-7h9---9-7h9----|
F#|-222222-10-9-10-222-5-8-222222-10-9-10----------------|
B |-222222-10-9-10-222-5-8-222222-10-9-10----------------|
    ******         ***     ******  

Verse Guitar 1 (Play all verse guitar 1 four times)
C#|---------------------------------------|---------------------|
G#|---------------------------------------|---------------------|
E |-9-9-12-12-11-11-9-9-11-11-9-9-7-7-9-9-|-7-7-12-12-11-11-9-9-|
B |---------------------------------------|---------------------|
F#|---------------------------------------|---------------------|
B |---------------------------------------|---------------------|

C#|-------------------------|
G#|-------------------------|
E |-12-12-12-12-11-11-11-11-|
B |-------------------------|
F#|-------------------------|
B |-------------------------|

Verse Guitar 2 (Play all Verse Guitar 2 four times)
C#|---------------------------------|
G#|---------------------------------|
E |---------------------------------|
B |---------------------------------|
F#|-7-7-7-7-7-7-7-7-7-7-7-7-7-7-7-7-|
B |---------------------------------|

C#|---------------------------------------|
G#|---------------------------------------|
E |---------------------------------------|
B |---------------------------------------|
F#|-5-5-5-5-5-5-5-5-10-10-10-10-9-9-10-10-|
B |---------------------------------------|

Pre-chorus (Both Guitars)
C#|-------------------------------------|
G#|-------------------------------------|
E |-------------------------------------|
B |-------------------------------------|
F#|-------------------------------------|
B |-9-9-9-9-10-9-8-9-9-9-9-9-9-13-12-10-|

C#|------------------------------------|
G#|------------------------------------|
E |------------------------------------|
B |------------------------------------|
F#|------------------------------------|
B |-9-9-9-9-10-9-8-9-9-9-9-9-9-9-10-11-|

C#|-------------------------------------|
G#|-------------------------------------|
E |-------------------------------------|
B |-------------------------------------|
F#|-------------------------------------|
B |-9-9-9-9-10-9-8-9-9-9-9-9-9-13-12-10-|
                                                       
C#|----------------------------------|
G#|----------------------------------|
E |----------------------------------|
B |----------------------------------|
F#|------------------9-9-9-9-9-9-9-9-|
B |-9-9-9-9-10-9-8-9-9-9-9-9-9-9-9-9-|
                     * * * * * * * *

Chorus (Both Guitars)
C#|-------X-X-X-X-------X-X-X-X-------X-X-X-X--------------------|
G#|-------X-X-X-X-------X-X-X-X-------X-X-X-X--------------------|
E |-------X-X-X-X-------X-X-X-X-------X-X-X-X--------------------|X2
B |-2-3-3-X-X-X-X-2-3-2-X-X-X-X-2-2-2-X-X-X-X--------------------|
F#|-2-3-2---------2-3-2---------2-2-2----------------------------|
B |-2-3-2---------2-3-2---------2-2-2----------12-0-10-0-9-0-7-0-|

Intro riff (Both Guitars)
C#|------------------------------------------------------------|
G#|------------------------------------------------------------|
E |------------------------------------------------------------|
B |-2-2-2-2-10-9-10-2-2-2-5--8-2-2-2-2-10-9-10-5-5-5-8-8-8-7-7-|
F#|-2-2-2-2-10-9-10-2-2-2-5--8-2-2-2-2-10-9-10-5-5-5-8-8-8-7-7-|
B |-2-2-2-2-10-9-10-2-2-2-5--8-2-2-2-2-10-9-10-5-5-5-8-8-8-7-7-|
    * * * *         * * *      * * * *         * * * * * * * *
C#|------------------------------------------------------------|
G#|------------------------------------------------------------|
E |------------------------------------------------9-------8---|
B |-2-2-2-2-10-9-10-2-2-2-5--8-2-2-2-2-10-9-10-7h9---9-7h9-----|
F#|-2-2-2-2-10-9-10-2-2-2-5--8-2-2-2-2-10-9-10-----------------|
B |-2-2-2-2-10-9-10-2-2-2-5--8-2-2-2-2-10-9-10-----------------|
    * * * *         * * *      * * * *

Verse


Pre-chorus


Chorus

Chorus pt2
Both Guitars (Play all twice)
C#|-----------------|   |---------------------|
G#|-----------------|   |---------------------|
E |-----------------|x3 |---------------------|
B |-2-----5-----8---|   |---------------------|
F#|-2-----5-----8---|   |---------------------|
B |-2-----5-----8---|   |-14-12-10-9-10-9-7-9-|
 


Intro Riff


Verse 3 
Guitar 1 (Play all verse guitar 1 four times)
C#|---------------------|-------------------|
G#|---------------------|-------------------|
E |-9-9-12-12-11-11-9-9-|-11-11-9-9-7-7-9-9-|
B |---------------------|-------------------|
F#|---------------------|-------------------|
B |---------------------|-------------------|

C#|---------------------|-------------------|
G#|---------------------|-------------------|
E |-7-7-12-12-11-11-9-9-|-11-11-9-9-7-7-9-9-|
B |---------------------|-------------------|
F#|---------------------|-------------------|
B |---------------------|-------------------|

Verse 3 
Guitar 2 (Play all verse Guitar 2 four times)
C#|-------------------|-----------------|
G#|-------------------|-----------------|
E |-------------------|-----------------|
B |-------------------|-----------------|
F#|-7-7-10-10-9-9-7-7-|-9-9-7-7-5-5-7-7-|
B |-------------------|-----------------|

C#|-------------------|-----------------|
G#|-------------------|-----------------|
E |-------------------|-----------------|
B |-------------------|-----------------|
F#|-5-5-10-10-9-9-7-7-|-9-9-7-7-5-5-7-7-|
B |-------------------|-----------------|

Pre-chorus (Both Guitars)
C#|------------------------------------|
G#|------------------------------------|
E |------------------------------------|
B |------------------------------------|
F#|------------------------------------|
B |-9-9-9-9-10-9-8-9-9-9-9-9-9-9-13-12-|

C#|-------------------------------------|
G#|-------------------------------------|
E |-------------------------------------|
B |-------------------------------------|
F#|-------------------------------------|
B |-9-9-9-9-10-9-8-9-9-9-9-9-9-13-12-10-|

C#|----------------------------------|
G#|----------------------------------|
E |----------------------------------|
B |----------------------------------|
F#|----------------------------------|
B |-9-9-9-9-10-9-8-9-9-9-9-9-9-9-9-9-|

C#|----------------|
G#|----------------|
E |------Rest------|
B |----------------|
F |----------------|
B |----------------|



Chorus


Chorus pt2


Outro (Both Guitars)
C#|-------------------------------------------------------|
G#|-------------------------------------------------------|
E |-------------------------------------------------------|
B |-222222-10-9-10-222-5-8-222222-10-9-10-5-5-5-8-8-8-7-7-|
F#|-222222-10-9-10-222-5-8-222222-10-9-10-5-5-5-8-8-8-7-7-|
B |-222222-10-9-10-222-5-8-222222-10-9-10-5-5-5-8-8-8-7-7-|
    ******         ***     ******         * * * * * * * *

C#|------------------------------------------------------|
C#|------------------------------------------------------|
E |-------------------------------------------9-------8--|
B |-222222-10-9-10-222-5-8-222222-10-9-10-7h9---9-7h9----|
F#|-222222-10-9-10-222-5-8-222222-10-9-10----------------|
B |-222222-10-9-10-222-5-8-222222-10-9-10----------------|
    ******         ***     ******  




| *  Palm mute
| /  slide up
| \  slide down
| h  hammer-on
| p  pull-off
| ~  vibrato
| x  Mute note
===================================================================
Composição de Stone Sour
5.096 exibições
    • ½ Tom
    • A
    • Bb
    • B
    • C
    • Db
    • D
    • Eb
    • E
    • F
    • F#
    • G
    • Ab
  • Adicionar à lista

    0 comentários

    Ver todos os comentários
    00:00 / 00:00
    Outros vídeos desta música
    Repetir Qualidade Automático
    Outros vídeos desta música
    00:00 / 00:00
    Automático

    Cifra Club Pro

    Aproveite o Cifra Club com benefícios exclusivos e sem anúncios
    Cifra Club Pro
    Aproveite o Cifra Club com benefícios exclusivos e sem anúncios
    OK