Cifra Club

Aprenda

Socio

Stone Sour

Cifra: Principal (violão e guitarra)
tom: B
AFINAÇÃO (B,F#,B,E,G#,C#)

INTRO GUITARRA 1

C#|---------------------------------------------------------------------------
G#|---------------------------------------------------------------------------
E|----------------------------------------------------------------------------
B|----------------------------------------------------------------------------
F#|----0--------------------------------------------------------7-------5-----
B|------------------------------------------------7-------9-------------------
tocar a nota (F#) até o fim do refrão

INTRO GUITARRA 2

C#|---------------------------------------------------------------------------------------
G#|---------------------------------------------------------------------------------------
E|----------------------------------------------------------------------------------------
B|--------------14-(16 vezes)---7-(16 vezes)--15-(16 vezes)--14-(32 vezes)--12-(16 vezes)-
F#|--0-(272 vezes)------------------------------------------------------------------------
B|----------------------------------------------------------------------------------------

Refrão

C#|------------------------------------------------------------------
G#|------------------------------------------------------------------
E|----10-10-10-12----------------------------------------------------
B|----10-10-10-12----10-10-10-10--12--12---12--5--7--7---------------
F#|---8--8--8--10----10-10-10-10--12--12---12--5--7--7---7-9-10-12---
B|-------------------10-10-10-10--12--12---12--5--7--7---7-9-10-12---

C#|-------------------------------------------------------------------
G#|-------------------------------------------------------------------
E|----10-10-10-12-----------------------------------------------------
B|----10-10-10-12---10-10-10-10-12---12---12---5---7---7--------------
F#|---8--8--8--10---10-10-10-10-12---12---12---5---7---7--------7-5---
B|------------------10-10-10-10-12---12---12---5---7---7---7-9--------

VERSO

C#|----------------------------------------------------------------------
G#|----------------------------------------------------------------------
E|-----------------------------------------------------------------------
B|--14--(16 vezes)-----12--(16 vezes)-----15-(16 vezes)----14-(32 vezes)-
F#|----------------------------------------------------------------------
B|-----------------------------------------------------------------------

C#|--------------------------------------------------------------------------
G#|--------------------------------------------------------------------------
E|---------------------------------------------------------------------------
B|---7----(16 vezes)----15---(16 vezes)----14---(32 vezes)---7-----16 vezes)-
F#|--------------------------------------------------------------------------
B|---------------------------------------------------------------------------

C#|--------------------------------------------------------------------------
G#|--------------------------------------------------------------------------
E|---------------------------------------------------------------------------
B|-15---(16 vezes)---14---(32 vezes)----12---(16 vezes)----15---(16 vezes)---
F#|--------------------------------------------------------------------------
B|---------------------------------------------------------------------------

C#|-------------------------------------------------------------------------
G#|-------------------------------------------------------------------------
E|--------------------------------------------------------------------------
B|---14---(32 vezes)---12---(16 vezes)--------------------------------------
F#|-------------------------------------------------------------------------
B|--------------------------------------------------------------------------

Refrão

RIFF 1

C#|----------------------------------------------------------------------
G#|----------------------------------------------------------------------
E|-------10-10-10-10-10-10-10-10-----------------------------------------
B|-------10-10-10-10-10-10-10-10---10-10-10-10-10-10-10-10---------------
F#|------8--8--8--8--8--8--8--8----10-10-10-10-10-10-10-10---------------
B|---------------------------------10-10-10-10-10-10-10-10---------------

C#|------------------------------------------------------------
G#|------------------------------------------------------------
E|-------------------------------------------------------------
B|---12-12-12-12-12-12--5-5------7-7-7-7-----------------------
F#|--12-12-12-12-12-12--5-5------7-7-7-7--7-9-10-12------------
B|---12-12-12-12-12-12--5-5------7-7-7-7--7-9-10-12------------

C#|----------------------------------------------------------------
G#|----------------------------------------------------------------
E|-------10-10-10-10-10-10-10-10-----------------------------------
B|-------10-10-10-10-10-10-10-10---10-10-10-10-10-10-10-10---------
F#|------8--8--8--8--8--8--8--8----10-10-10-10-10-10-10-10---------
B|---------------------------------10-10-10-10-10-10-10-10---------

C#|----------------------------------------------------------------
G#|----------------------------------------------------------------
E|-----------------------------------------------------------------
B|---12-12-12-12-12-12-5-5------7-7-7-7----------------------------
F#|--12-12-12-12-12-12-5-5------7-7-7-7--------------7-----5-------
B|---12-12-12-12-12-12-5-5------7-7-7-7----7---9-------------------

RIFF 2

C#|-----------------------------------------------------------------------------------
G#|-----------------------------------------------------------------------------------
E|-------9--------9-7-9-7----------------------9-7-9-7--------------------------------
B|-------7------------------------------0---------------------------------------------
F#|-------------------------------------7---------------------------------------------
B|-------------------------------------------------------------------(tocar Riff 2 2x)

GUITARRA 1
SOLO

C#|-------12-------------------------------------------------------------------------
G#|-------------------13-12-------------------------12-------------------------------
E|-----------------------------------12-12---------------------12----9---------------
B|-----------------------------------------------------------------------------------
F#|----------------------------------------------------------------------------------
B|-----------------------------------------------------------------------------------

C#|---12---12--------10--------------------------------------------------------19-15-
G#|----------------------------13-12------------------------------------12-----------
E|-------------------------------------------------12-12-----------------------------
B|-----------------------------------------------------------------------------------
F#|----------------------------------------------------------------------------------
B|-----------------------------------------------------------------------------------

GUITARRA 2
BASE

C#|--------------------------------------------------------------------
G#|--------------------------------------------------------------------
E|---------------------------------------------------------------------
B|---------------------------------------------------------------------
F#|---7-9-10-12---------------------12--10---9---5---------------------
B|----7-9-10-12---(tocar 7x)--------12--10---9---5--(tocar tudo 2x)----

C#|--------------------
G#|--------------------
E|---------------------
B|---------------------
F#|---5-3-2------------
B|--------------5------

FINAL

C#|---------------------------------------------------------------
G#|---------------------------------------------------------------
E|-----10-10-10-10------------------------------------------------
B|-----10-10-10-10---10-10-10-10--12-12-12---5-7-7----------------
F#|----8--8--8--8----10-10-10-10--12-12-12---5-7-7---7--9--10--12-
B|-------------------10-10-10-10--12-12-12---5-7-7---7--9--10--12-

RIFF 3
C#|---------------------------------------------------------------------
G#|---------------------------------------------------------------------
E|---10-10-10-10-10-10-10-10--------------------------------------------
B|---10-10-10-10-10-10-10-10-10-10-10-10-10-10-10-10--------------------
F#|--8--8--8--8--8--8--8--8--10-10-10-10-10-10-10-10--------------------
B|---------------------------10-10-10-10-10-10-10-10--------------------

C#|------------------------------------------------------------------------
G#|------------------------------------------------------------------------
E|-------------------------------------------------------------------------
B|---12-12-12-12-12-12---5-5-7-7-7-7---------------------------------------
F#|--12-12-12-12-12-12---5-5-7-7-7-7-------------7-------5-----------------
B|---12-12-12-12-12-12---5-5-7-7-7-7---7-----9----------(tocar riff 3  2X)-

C#|-----------------------------------------------------------------------
G#|-----------------------------------------------------------------------
E|---10-10-10-10-10-10-10-10----------------------------------------------
B|---10-10-10-10-10-10-10-10---10-10-10-10-10-10-10-10--------------------
F#|--8--8--8--8--8--8--8--8----10-10-10-10-10-10-10-10--------------------
B|-----------------------------10-10-10-10-10-10-10-10--------------------

C#|----------------------------------------------------------------------
G#|----------------------------------------------------------------------
E|-----------------------------------------------------------------------
B|---12-12-12-12-12-12-5-5-7-7-7-7-7-7-7-7-7-----------------------------
F#|--12-12-12-12-12-12-5-5-7-7-7-7-7-7-7-7-7-----------------------------
B|---12-12-12-12-12-12-5-5-7-7-7-7-7-7-7-7-7-----------------------------

GUITARRA SOLO PARTE FINAL

C#|---10---8------10---8-------10---8--------------------------------------10---8---
G#|-------------------------------------------------8---10------22------------------
E|----------------------------------------------------------------------------------
B|----------------------------------------------------------------------------------
F#|---------------------------------------------------------------------------------
B|----------------------------------------------------------------------------------

C#|--8--3------10--8---8--3-------10--8---8--3----10-8------------------------------------
G#|----------------------------------------------------10-8-------------------------------
E|----------------------------------------------------------9-7---------------------------    
B|----------------------------------------------------------------10-7--------------------
F#|---------------------------------------------------------------------10-7--------------
B|-----------------------------------------------------------------------------12-10----7-
Composição de Stone Sour
Colaboração e revisão:
  • fernando coelho
3.291 exibições
    • ½ Tom
    • A
    • Bb
    • B
    • C
    • Db
    • D
    • Eb
    • E
    • F
    • F#
    • G
    • Ab
  • Adicionar à lista

    0 comentários

    Ver todos os comentários
    00:00 / 00:00
    Outros vídeos desta música
    Repetir Qualidade Automático
    Outros vídeos desta música
    00:00 / 00:00
    Automático

    Cifra Club Pro

    Aproveite o Cifra Club com benefícios exclusivos e sem anúncios
    Cifra Club Pro
    Aproveite o Cifra Club com benefícios exclusivos e sem anúncios
    OK