Enviar cifraEntrar

Wicked Game

Stone Sour

Cifra: Principal
exibições 86.850
Tom: E
Stone Sour (Cover Chris Isaak)


Intro: B5 A A4 E E4 E


Riff


Eb|------2------------------------------|
Bb|---------3/5-3-2-2/3/2---------------|
Gb|--2/4-------------------2/4-2/4~-----|
Db|-------------------------------------|
Ab|-------------------------------------|
Eb|-------------------------------------|



B5                           A         A4              E E4 E
 The world was on fire and no one could save me but you.
B5                 A         A4                  E E4 E
Strange what desire will make foolish people do.
B5                        A       A4              E E4 E
And I never dreamed that I'd meet somebody like you,
B5                        A       A4               E E4 E
And I never dreamed that I'd lose somebody like you.


Refrão:

   B5    A       A4         E E4 E
No, I don't wanna fall in love
   B5    A       A4         E E4 E
No, I don't wanna fall in love
        B5    A   A4   E E4 E
With you
        B5    A   A4   E E4 E
With you


B5            A
What a wicked game to play
E
To make me feel this way
B5             A
What a wicked thing to do
E
To make me dream of you
B5             A
What a wicked thing to say
E
You never felt that way
B5           A
What a wicked thing to do
E
To make me dream of you


Refrão:

   B5    A       A4         E E4 E
And I don't wanna fall in love
    B5    A      A4         E E4 E
No, I don't wanna fall in love
        B5    A     A4        E E4 E
With you
        B5    A     A4        E E4 E
With you


Solo 2x: (B A E)


      B
Eb|----2----------2---------2---|
Bb|-------3----------3------3---|
Gb|---------4----------4----4---|
Db|--4--------------------------|
Ab|--2--------------------------|
Eb|-----------------------------|


      A                    A4
Eb|----0----------0---------0---|
Bb|-------2----------2------3---|
Gb|---------2-----------2---2---|
Db|--2--------------------------|
Ab|--0--------------------------|
Eb|-----------------------------|


      E
Eb|-------------------------|
Bb|-------------------------|
Gb|--1--------2----1--------|
Db|--2---2/4----2-----------|
Ab|--2----------------------|
Eb|--0----------------------|



B5                       A        A4             E E4 E
World was on fire and no one could save me but you.
B5                         A         A4       E E4 E
Strange what desire will make foolish people do.
    B5                      A    A4               E E4 E
And I never dreamed that I'd meet somebody like you,
    B5                      A    A4               E E4 E
And I never dreamed that I'd lose somebody like you.

Refrão:

    B5   A       A4        E E4 E
No, I don't wanna fall in love
    B5   A       A4        E E4 E
No, I don't wanna fall in love
   B5     A       A4     E E4 E
No I...
   B5     A       A4     E E4 E
No I...
B5       A           E
Nobody loves no one
  • 1
  • 2
  • 3
  • 4
  • 5
  • 6
  • 7
  • 8
  • 9
  • 10
  • 11
  • 12
    Acordes para:
      Composição: Chris IsaakColaboração e revisão:

      0 comentários

        mostrar mais comentários

        Conseguiu tocar?

        42tocaram2ainda não

        Grave um vídeo tocando Wicked Game e mande pra gente!

        00:00 / 00:00
        outros vídeos desta música
        repetirqualidadeautomática
        • automática
        Outro vídeos desta música
          00:00 / 00:00
          automática
          • automática
          Acordes para:violão e guitarra
          dificuldadeexibiçõescontribuições
          1 versão de Guitar Proformatodownloadscontribuição
          fecharplay/pause subir/descer velocidade
            acordes
            fechar
            OK
            Feedback