Cifra Club

Aprenda

Wicked Game

Stone Sour

Cifra: Principal (violão e guitarra)
tom: Bb
Intro: Bb5  G#  G#4  Eb  Eb4  Eb

Riff
Eb|--------13-----------------------------------------|E
Bb|------------14/16-14-13-13/14/13-------------------|B
Gb|--13/15---------------------------13/15-13/15~-----|G
Db|---------------------------------------------------|D
Ab|---------------------------------------------------|A
Eb|---------------------------------------------------|E

Bb5                  G#      G#4          Eb Eb4 Eb
 The world was on fire and no one could save me but you
Bb5           G#       G#4             Eb Eb4  Eb
Strange what desire will make foolish people do
Bb5              G#       G#4        Eb Eb4   Eb
And I never dreamed that I'd meet somebody like you
Bb5              G#       G#4          Eb Eb4  Eb
And I never dreamed that I'd lose somebody like you

Refrão:

 Bb5    G#      G#4         Eb Eb4 Eb
No, I don't wanna fall in love
 Bb5    G#      G#4         Eb Eb4 Eb
No, I don't wanna fall in love
     Bb5 G# G#4 Eb Eb4 Eb
With you
     Bb5 G# G#4 Eb Eb4 Eb
With you

Bb5       G#
What a wicked game to play
Eb
To make me feel this way
Bb5        G#
What a wicked thing to do
Eb
To make me dream of you
Bb5        G#
What a wicked thing to say
Eb
You never felt that way
Bb5       G#
What a wicked thing to do
Eb
To make me dream of you

Refrão:

 Bb5    G#     G#4         Eb Eb4 Eb
And I don't wanna fall in love
  Bb5    G#     G#4         Eb Eb4 Eb
No, I don't wanna fall in love
     Bb5 G# G#4 Eb Eb4 Eb
With you
     Bb5 G# G#4 Eb Eb4 Eb
With you

Solo 2x: Bb  G#  Eb

       Bb

Eb|-----13------------13-----------13---|E
Bb|---------14------------14-------14---|B
Gb|------------15------------15----15---|G
Db|--15---------------------------------|D
Ab|--13---------------------------------|A
Eb|-------------------------------------|E

       G#                    G#4

Eb|-----11------------11-----------11---|E
Bb|---------13------------13-------14---|B
Gb|------------13-------------13---13---|G
Db|--13---------------------------------|D
Ab|--11---------------------------------|A
Eb|-------------------------------------|E

       Eb

Eb|-------------------------------|E
Bb|-------------------------------|B
Gb|--12----------13-----12--------|G
Db|--13---13/15-----13------------|D
Ab|--13---------------------------|A
Eb|--11---------------------------|E

Bb5               G#      G#4        Eb  Eb4 Eb
World was on fire and no one could save me but you
Bb5                G#       G#4      Eb Eb4  Eb
Strange what desire will make foolish people do
  Bb5             G#    G#4          Eb Eb4   Eb
And I never dreamed that I'd meet somebody like you
  Bb5             G#    G#4           Eb Eb4   Eb
And I never dreamed that I'd lose somebody like you

Refrão:

  Bb5   G#      G#4        Eb Eb4 Eb
No, I don't wanna fall in love
  Bb5   G#      G#4        Eb Eb4 Eb
No, I don't wanna fall in love
 Bb5   G# G#4 Eb Eb4 Eb
No I...
 Bb5   G# G#4 Eb Eb4 Eb
No I...
Bb5    G#        Eb
Nobody loves no one
Composição de Chris Isaak
149.200 exibições
    • ½ Tom
    • A
    • Bb
    • B
    • C
    • Db
    • D
    • Eb
    • E
    • F
    • F#
    • G
    • Ab
  • Adicionar à lista

    0 comentários

    Ver todos os comentários
    00:00 / 00:00
    Outros vídeos desta música
    Repetir Qualidade Automático
    Outros vídeos desta música
    00:00 / 00:00
    Automático

    Cifra Club Pro

    Aproveite o Cifra Club com benefícios exclusivos e sem anúncios
    Cifra Club Pro
    Aproveite o Cifra Club com benefícios exclusivos e sem anúncios
    OK