Cifra Club

Between The Lines

Stone Temple Pilots

Cifra: Principal (violão e guitarra)
Tom: D
Tunning: Drop D   (D,A,D,G)

INTRO
|--------------------------------|
|--------------------------------|
|3-3-0-3-3-0-3---3-3-0-3-3-0-3---|
|--------------------------------|

VERSE
|----------------------------------------------------------------|
|---3---3-5-3-------3---3-5-3-------3---3-5-3-------3---3-5-3----| x2
|5----5--------5-5----5--------5-5----5--------5-5----5--------5-| 
|----------------------------------------------------------------|

|-------------------------------|----------------------------------------|
|--------------------3---3-5-7/-|10-10----10-10----10-10h12--10----------|
|3-3-0-3-3-0-3---5-5---5--------|------12-------12---------------12-10-8-|
|-------------------------------|----------------------------------------|

|-------------------------------|----------------------|-
|--------------------3---3-5-7/-|10-10----10-10----10/-|-
|3-3-0-3-3-0-3---5-5---5--------|------12-------12-----|-
|-------------------------------|----------------------|-

CHORUS
|---------------------------|    |-------------------------------|
|---------------------------|x4  |-------------------------------|
|5--5-------------------3-3-|    |3-3-0-3-3-0-3---3-3-0-3-3-0-3--|
|-----0-0-5-50-3--3-0-0----0|    |-------------------------------|

VERSE

CHORUS
(different ending)
|---------------------------------------|
|---------------------------------------|
|3-3-0-3-3-0-3---/15-15-12-15-15-12-15/-|
|---------------------------------------|

BRIDGE
|--------------------------------|
|--------------------------------| x3
|0--0--x-x-5-5-0-3--3--x-x-------|
|--------------------------5-5-0-|

|------------------------------------------|
|-------------------------------13---------|
|0--0--x-x-5-5-0-3-/-(13)-13h15----15-13/--|
|------------------------------------------|

GUITAR SOLO : SAME AS CHORUS 1
variation:
|--------------------------------------|
|-----------------10h12-10----10-------|
|5--5----------------------12----12-10-|
|-----0-0-5-50-3-----------------------|

LAST VERSE: SAME AS VERSE
variation
|-------------------------------|---------------------10b11-------------|
|--------------------3---3-5-7/-|10-10----10-10----10------12--10-------|
|3-3-0-3-3-0-3---5-5---5--------|------12-------12---------------12-10--|
|-------------------------------|---------------------------------------|

CHORUS
exibições 278
Acordes para:
    Composição: Scott Weiland Colaboração e revisão:
    • Gabriel Leite

    0 comentários

    mostrar mais comentários

    Conseguiu tocar?

    0 tocaram 0 ainda não

    Grave um vídeo tocando Between The Lines e mande pra gente!

    00:00 / 00:00
    outros vídeos desta música
    repetir qualidade Automático
    Outros vídeos desta música
    00:00 / 00:00
    Automático
    OK