Cifra Club

Aprenda

Big Empty

Stone Temple Pilots

Cifra: Principal (violão e guitarra)
Tom: C
(intro solo) 

E|------------------------------3/7-10~~~~-7-10-6~~~\3-3-5-6\5-3--5-3|
B|----8~~~7-8-7~~~~\3-3-3~~~~--0-------------------------------------|

E|--3/7-10~~~7-10-6~~~~-------|
B|----------------------------|

Em7                  C9            Em7
Driving faster in my car
Falling farther from just what we are
Smoke a cigarette and lie some more. These conversations kill
Falling faster in my car

(refrão)
G       A
Time to take her home
C
Her dizzy head is conscience laden
G       A                C
Time to take a ride that leaves today. No conversation
G       A
Time to take her home
C
Her dizzy head is conscience laden
G       A
Time to wait to long
C
To wait to long, to wait to long 

(G F Esus4 E)

(half solo)
E|---10/12\3-3/6~~~-----3-5-6~~~~3-5-3-3/7-10~~~10/12\10-6~~~\\-3/6-|
B|------------------3/5---------------------------------------------|

E|--3/5-------|
B|-----3/5~~~~|

Em7                                 C9          Em7
Too much walkin' shoes worn thin
Too much trippin' and my soul's worn thin
Time to catch a ride that leaves today. Her name is what is means
Too much walkin' shoes worn thin

(refrão)

                        G F Esus4 E
...Conversation kills... (3x)

|-------------------| |---------------------|
|--------2-3-2------| |--2--2-3-5-3-2-------|
|--------------2----| |---------------2-----|
|-----2----------2--| |2-----------------2--|
|-------------------| |---------------------|
|-------------------| |---------------------|
(3x)        (1x e volta pra dedilhado anterior 3x)

(refrão)
                        G F Esus4 E
...Conversation kills... (3x)
Composição de Dean DeLeo / Scott Weiland
Colaboração e revisão:
  • walclides Filho
28.652 exibições
    • ½ Tom
    • A
    • Bb
    • B
    • C
    • Db
    • D
    • Eb
    • E
    • F
    • F#
    • G
    • Ab
  • Adicionar à lista

    0 comentários

    Mostrar mais comentários

    Conseguiu tocar?

    6 Tocaram 0 Ainda não

    Grave um vídeo tocando Big Empty e mande pra gente!

    00:00 / 00:00
    outros vídeos desta música
    repetir qualidade Automático
    Outros vídeos desta música
    00:00 / 00:00
    Automático

    Cifra Club Pro

    Aproveite o Cifra Club com benefícios exclusivos e sem anúncios
    7 dias grátis
    Cifra Club Pro
    Aproveite o Cifra Club com benefícios exclusivos e sem anúncios
    7 dias grátis
    OK