Cifra Club

Aprenda

Crackerman

Stone Temple Pilots

Tab de baixo: Versão 2

CRACKERMAN (Bassline)




Transcribed by Gary Ramsey

 

 

Gtr I (E A D G) - 'Staff'


  Q=74
 4/4
  Gtr I
  S S S S S S S S S S S S S S S S   S S S S S S S S S S S S S S S S
|---------------------------------|----------------------------------|
|---------------------------------|----------------------------------|
|-0-2-2-0-2-2-0-2-2-0-2-2-0-2-2-0-|-------0-----------0--------------|
|---------------------------------|-0-2-2---2-2-0-2-2---2-2-0-2-2-2--|


  S S S S S S S S S S S S S S S S   S S S S S S S S S S S S S S S S
|---------------------------------|---------------------------------|
|---------------------------------|---------------------------------|
|-0-2-2-0-2-2-0-2-2-0-2-2-0-2-2-0-|-------0-----------0-------------|
|---------------------------------|-0-2-2---2-2-0-2-2---2-2-0-2-2-2-|


  S S S S S S S S S S S S S S S S   S S S S S S S S S S S S S S S S
|---------------------------------|---------------------------------|
|---------------------------------|---------------------------------|
|-0-2-2-0-2-2-0-2-2-0-2-2-0-2-2-0-|-------0-----------0-------------|
|---------------------------------|-0-2-2---2-2-0-2-2---2-2-0-2-2-2-|


  S S S S S S S S S S S S S S S S   H    +H
|---------------------------------|-------------|
|---------------------------------|-------------|
|-0-2-2-0-2-2-0-2-2-0-2-2-0-2-2-0-|-0----(0)----|
|---------------------------------|-------------|


  S S S S S S S S S S S S S S S S   S S S S S S S S S S S S S S S S
|---------------------------------|---------------------------------|
|---------------------------------|---------------------------------|
|-------0-----------0-------------|-------0-----------0-------------|
|-0-2-2---2-2-0-2-2---2-2-0-2-2-2-|-0-2-2---2-2-0-2-2---2-2-0-2-2-2-|


  S S S S S S S S S S S S S S S S   S S S S S S S S S S S S S S S S
|---------------------------------|---------------------------------|
|---------------------------------|---------------------------------|
|-------0-----------0-------------|-------0-----------0-------------|
|-0-2-2---2-2-0-2-2---2-2-0-2-2-2-|-0-2-2---2-2-0-2-2---2-2-0-2-2-2-|


  S S S S S S S S S S S S S S S S   S S S S S S S S S S S S S S S S
|---------------------------------|---------------------------------|
|---------------------------------|---------------------------------|
|-0-2-2-0-2-2-0-2-2-0-2-2-0-2-2-0-|-------0-----------0-------------|
|---------------------------------|-0-2-2---2-2-0-2-2---2-2-0-2-2-2-|


  S S S S S S S S S S S S S S S S   S S S S S S S S S S S S S S S S
|---------------------------------|---------------------------------|
|---------------------------------|---------------------------------|
|-0-2-2-0-2-2-0-2-2-0-2-2-0-2-2-0-|-------0-----------0-------------|
|---------------------------------|-0-2-2---2-2-0-2-2---2-2-0-2-2-2-|


  S S S S S S S S S S S S S S S S   S S S S S S S S S S S S S S S S
|---------------------------------|---------------------------------|
|---------------------------------|---------------------------------|
|-0-2-2-0-2-2-0-2-2-0-2-2-0-2-2-0-|-------0-----------0-------------|
|---------------------------------|-0-2-2---2-2-0-2-2---2-2-0-2-2-2-|


  S S S S S S S S S S S S S S S S   H    +H
|---------------------------------|-------------|
|---------------------------------|-------------|
|-0-2-2-0-2-2-0-2-2-0-2-2-0-2-2-0-|-0----(0)----|
|---------------------------------|-------------|


  S S S S S S S S S S S S S S S S   S S S S S S S S S S S S S S S S
|---------------------------------|---------------------------------|
|---------------------------------|---------------------------------|
|-------0-----------0-------------|-------0-----------0-------------|
|-0-2-2---2-2-0-2-2---2-2-0-2-2-2-|-0-2-2---2-2-0-2-2---2-2-0-2-2-2-|


  S S S S S S S S S S S S S S S S   S S S S S S S S S S S S S S S S
|---------------------------------|---------------------------------|
|---------------------------------|---------------------------------|
|-------0-----------0-------------|-------0-----------0-------------|
|-0-2-2---2-2-0-2-2---2-2-0-2-2-2-|-0-2-2---2-2-0-2-2---2-2-0-2-2-2-|


  S S S S S S S S S S S S S S S S   S S S S S S S S S S S S S S S S
|---------------------------------|---------------------------------|
|---------------------------------|---------------------------------|
|-0-2-2-0-2-2-0-2-2-0-2-2-0-2-2-0-|-------0-----------0-------------|
|---------------------------------|-0-2-2---2-2-0-2-2---2-2-0-2-2-2-|


  S S S S S S S S S S S S S S S S   S S S S S S S S S S S S S S S S
|---------------------------------|---------------------------------|
|---------------------------------|---------------------------------|
|-0-2-2-0-2-2-0-2-2-0-2-2-0-2-2-0-|-------0-----------0-------------|
|---------------------------------|-0-2-2---2-2-0-2-2---2-2-0-2-2-2-|


  S S S S S S S S S S S S S S S S   S S S S S S S S S S S S S S S S
|---------------------------------|---------------------------------|
|---------------------------------|---------------------------------|
|-0-2-2-0-2-2-0-2-2-0-2-2-0-2-2-0-|-------0-----------0-------------|
|---------------------------------|-0-2-2---2-2-0-2-2---2-2-0-2-2-2-|


  S S S S S S S S S S S S S S S S   E. S +E  S S S S S S S S E
|---------------------------------|----------------------------|
|---------------------------------|----------0-----------------|
|-0-2-2-0-2-2-0-2-2-0-2-2-0-2-2-0-|----0-(0)---4-5-7-7-6-7-8-9-|
|---------------------------------|-2--------------------------|


  E. S +E  S S S S S S E E
|--------------------------|
|----------0---------------|
|----0-(0)---4-5-5-5-4-5---|
|-2----------------------5-|


  E. S +E  S S S S S S S S E   E. S +E  S S S S S S E E
|----------------------------|--------------------------|
|----------0-----------------|----------0---------------|
|----0-(0)---4-5-7-7-6-7-8-9-|----0-(0)---4-5-5-5-4-5---|
|-2--------------------------|-2----------------------5-|


  S S S S S S S S S S S S S S S S   S S S S S S S S S S S S S S S S
|---------------------------------|---------------------------------|
|---------------------------------|---------------------------------|
|-------0-----------0-------------|-------0-----------0-------------|
|-0-2-2---2-2-0-2-2---2-2-0-2-2-2-|-0-2-2---2-2-0-2-2---2-2-0-2-2-2-|


  S S S S S S S S S S S S S S S S   S S S S S S S S S S S S S S S S
|---------------------------------|---------------------------------|
|---------------------------------|---------------------------------|
|-------0-----------0-------------|-------0-----------0-------------|
|-0-2-2---2-2-0-2-2---2-2-0-2-2-2-|-0-2-2---2-2-0-2-2---2-2-0-2-2-2-|


  S S S S S S S S S S S S S S S S   S S S S S S S S S S S S S S S S
|---------------------------------|---------------------------------|
|---------------------------------|---------------------------------|
|-------0-----------0-------------|-------0-----------0-------------|
|-0-2-2---2-2-0-2-2---2-2-0-2-2-2-|-0-2-2---2-2-0-2-2---2-2-0-2-2-2-|


  S S S S S S S S S S S S S S S S   S S S S S S S S S S S S S S S S
|---------------------------------|---------------------------------|
|---------------------------------|---------------------------------|
|-------0-----------0-------------|-------0-----------0-------------|
|-0-2-2---2-2-0-2-2---2-2-0-2-2-2-|-0-2-2---2-2-0-2-2---2-2-0-2-2-2-|


  S S S S S S S S S S S S S S S S   S S S S S S S S S S S S S S S S
|---------------------------------|---------------------------------|
|---------------------------------|---------------------------------|
|-0-2-2-0-2-2-0-2-2-0-2-2-0-2-2-0-|-------0-----------0-------------|
|---------------------------------|-0-2-2---2-2-0-2-2---2-2-0-2-2-2-|


  S S S S S S S S S S S S S S S S   S S S S S S S S S S S S S S S S
|---------------------------------|---------------------------------|
|---------------------------------|---------------------------------|
|-0-2-2-0-2-2-0-2-2-0-2-2-0-2-2-0-|-------0-----------0-------------|
|---------------------------------|-0-2-2---2-2-0-2-2---2-2-0-2-2-2-|


  S S S S S S S S S S S S S S S S   S S S S S S S S S S S S S S S S
|---------------------------------|---------------------------------|
|---------------------------------|---------------------------------|
|-0-2-2-0-2-2-0-2-2-0-2-2-0-2-2-0-|-------0-----------0-------------|
|---------------------------------|-0-2-2---2-2-0-2-2---2-2-0-2-2-2-|


  S S S S S S S S S S S S S S S S   E. S +E  S S S S S S S S E
|---------------------------------|----------------------------|
|---------------------------------|----------0-----------------|
|-0-2-2-0-2-2-0-2-2-0-2-2-0-2-2-0-|----0-(0)---4-5-7-7-6-7-8-9-|
|---------------------------------|-2--------------------------|


  E. S +E  S S S S S S E E
|--------------------------|
|----------0---------------|
|----0-(0)---4-5-5-5-4-5---|
|-2----------------------5-|


  E. S +E  S S S S S S S S E   E. S +E  S S S S S S E E
|----------------------------|--------------------------|
|----------0-----------------|----------0---------------|
|----0-(0)---4-5-7-7-6-7-8-9-|----0-(0)---4-5-5-5-4-5---|
|-2--------------------------|-2----------------------5-|


  S S S S S S S S S S S S S S S S   S S S S S S S S S S S S S S S S
|---------------------------------|---------------------------------|
|---------------------------------|---------------------------------|
|-------0-----------0-------------|-------0-----------0-------------|
|-0-2-2---2-2-0-2-2---2-2-0-2-2-2-|-0-2-2---2-2-0-2-2---2-2-0-2-2-2-|


  S S S S S S S S S S S S S S S S   S S S S S S E +H       +H     +H
|---------------------------------|----------------------|---------------*|
|---------------------------------|----------------------|---------------*|
|-------0-----------0-------------|-------0---0-0-(0)----|-(0)----(0)----*|
|-0-2-2---2-2-0-2-2---2-2-0-2-2-2-|-0-2-2---2------------|---------------*|




--------------------------------------------------------------------------------


Duration Legend
---------------
+ - note tied to previous; . - note dotted; .. - note double dotted
Uncapitalized letters represent notes that are staccato (1/2 duration)
Irregular groupings are notated above the duration line
Duration letters will always appear directly above the note/fret number it represents the
duration for.  Duration letters with no fret number below them represent rests.  Multi-
bar rests are notated in the form Wxn, where n is the number of bars to rest for.  Low
melody durations appear below the staff

Tablature Legend
----------------
 h   - hammer-on
 p   - pull-off
 b   - bend
 pb  - pre-bend
 r   - bend release (if no number after the r, then release immediately)
 /\  - slide into or out of (from/to "nowhere")
 s   - legato slide
 S   - shift slide
 - natural harmonic
n(n) - tapped harmonic
 ~   - vibrato
 tr  - trill
 T   - tap
 TP  - trem. picking
 PM  - palm muting
\n/  - tremolo bar dip; n = amount to dip
 \n  - tremolo bar down
 n/  - tremolo bar up
/n\  - tremolo bar inverted dip
 =   - hold bend; also acts as connecting device for hammers/pulls
  - volume swell (louder/softer)

Misc Legend
-----------
 |  - bar
||o - repeat start
o|| - repeat end
 :  - bar (freetime)
 &  - Coda



--------------------------------------------------------------------------------

** Generated using Power Tab Editor by Brad Larsen: The Official Power Tab Web Site
Composição de Eric Kretz / Robert DeLeo / Scott Weiland
290 exibições

0 comentários

Mostrar mais comentários

Conseguiu tocar?

0 Tocaram 0 Ainda não

Grave um vídeo tocando Crackerman e mande pra gente!

00:00 / 00:00
outros vídeos desta música
repetir qualidade Automático
Outros vídeos desta música
00:00 / 00:00
Automático

Cifra Club Pro

Aproveite o Cifra Club com benefícios exclusivos e sem anúncios
Cifra Club Pro
Aproveite o Cifra Club com benefícios exclusivos e sem anúncios
OK