Cifra Club

Creep

Stone Temple Pilots

Cifra: Principal
exibições 137.527
Tom: G
Intro 2x: C  B7  Em7

Em7           C     B7             Em7
Forward yesterday, makes me want to stay
Em7               C       B7              Em7
What they said was real, makes me want to steal
Em7           C        B7             Em7
Living under house, yes I'm living I'm a mouse
Em7           C        B7              Em7
All I got is time, got no meaning just a rhyme

Pré-Chorus:

G                Am            Em7
Take time with a wounded hand, cause It likes to heal
G                Am            Em7
Take time with a wounded hand, guess I like to steal
G                Am            C                      D
Take time with a wounded hand, cause it likes to heal,I  like to steal

Refrão:

Riff 1:
E|--------------------------------------------|
B|--------------------------------------------|
G|--------------------------------------------|
D|------0--------0---------0-----------0--2---|
A|----2--------0---------2-------0--2---------|
E|--0----0---2----2----3----3-----------------|
Riff 2:
E|--------------------------------------------|
B|--------------------------------------------|
G|--------------------------------------------|
D|------0--------0--------0-------------------|
A|----2--------0---------2--------0-1-2-------|
E|--0----0---2----2----3----3-----------------|
Riff 3:
E|---3--------------------------------|------------------------------------|
B|---3--------------------------------|------------------------------------|
G|---0--------------------------------|------------------------------------|
D|---2--------------------------------|------------------------------------|
A|---2--------------------------------|----7p6-----5p4------3p2------------|
E|---0--------------------------------|--------7-------5---------0---------|

Refrão I:
(riff 1)
I'm half the man I used to be.
(riff 2)
(Because I feel as the dawn. It fades to gray.) 
(riff 1)                             (riff 2)
Well, I'm half the man I used to be, half the man I used to be

(Riff 3)

Em7          C       B7                 Em7
Feeling Uninspired, think I'll start a fire
Em7       C     B7           Em7
Everybody run, Bobby's got a gun
Em7                 C              B7              Em7
Think you're kind'a neat, then she tells me I'm a creep
Em7                  C                 B7             Em7
Friends don't mean a thing, guess I'll leave it up to me

(Repete o pré-chorus e o Refrão II 2x)

Refrão II:
(riff 1)
I'm half the man I used to be.
(riff 2)
(Because I feel as the dawn. It fades to gray)
(riff 1)
Well, I'm half the man I used to be.
(riff 2)
(Because I feel as the dawn. It fades to gray.)
(riff 1)
Well, I'm half the man I used to be.
(riff 2)
(Because I feel as the dawn. It fades to gray.) 
(riff 1)                             (riff 2)
Well, I'm half the man I used to be, half the man I used to be
Acordes para:

    0 comentários

      mostrar mais comentários

      Conseguiu tocar?

      29tocaram0ainda não

      Grave um vídeo tocando Creep e mande pra gente!

      00:00 / 00:00
      outros vídeos desta música
      repetirqualidadeautomática
      Outro vídeos desta música
        00:00 / 00:00
        automática
        OK