Cifra Club

Plush

Stone Temple Pilots

Tab de baixo: Principal
[Introdução]

Parte 1 
G|----------------------------------------------|
D|----------------------------------------------|
A|-----1-1---1-2-3-3-----2-3-4-5---1-1---1-2----|
E|-3-3-----3---------3-3---------3-----3--------|

G|----------------------------------------------|
D|----------------------------------------------|
A|-3-3-----2-3-4-5---1-1---1-2-3-3-----2-3-4-5--|
E|-----3-3---------3-----3---------3-3----------|

G|----------------------------------------------|
D|----------------------------------------------|
A|---1-1---1-2-3-3------------------------------|
E|-3-----3---------3----------------------------|


[Primeira parte]

And I feel that time's a wasted go...

Parte 1 de 4
G|----------------------------------------------|
D|------5-4---0-3-3--0-2---0-1-1-0-1-1-1-0-3----|
A|----------5------------3----------------------|
E|-3-3------------------------------------------|

G|----------------------------------------------|
D|-0-5----5-4---0-3-3--0-2---0-1-1-0-1-1-1-0-3--|
A|------------5------------3--------------------|
E|-----3----------------------------------------|

Parte 2 de 4
G|----------------------------------------------|
D|----------------3-----------------------------|
A|-5-5-3-2-3--2-3---5-5-3-3-2-5---2-3-4---------|
E|------------------------------3---------------|

G|----------------------------------------------|
D|----------------3-----------------------------|
A|-5-5-3-2-3--2-3---5-5-3-3-2-2-3--2-3-4--------|
E|----------------------------------------------|

Parte 3 de 4 ( 3x )
G|----------------------------------------------|
D|--------------------10-8-7--------------------|
A|-6-6---6-6-6---6--8--------8----8-8-8-10-8----|
E|-----6-------8----------------8---------------|

Parte 4 de 4
G|----------------------------------------------|
D|--------------------10-8-7--------------------|
A|-6-6---6-6-6---6--8--------8---8-8---8-8------|
E|-----6-------8---------------8-----8-----8\---|


[Introdução 2]

Parte 1 
G|----------------------------------------------|
D|----------------------------------------------|
A|-----1-1---1-2-3-3-----2-3-4-5---1-1---1-2----|
E|-3-3-----3---------3-3---------3-----3--------|

G|----------------------------------------------|
D|----------------------------------------------|
A|-3-3------------------------------------------|
E|-----3----------------------------------------|


[Segunda parte]

And I feel so much depends on the weather...

Parte 1 de 4
G|----------------------------------------------|
D|------5-4---0-3-3--0-2---0-1-1-0-1-1-1-0-3----|
A|----------5------------3----------------------|
E|-3-3------------------------------------------|

G|----------------------------------------------|
D|-0-5----5-4---0-3-3--0-2---0-1-1-0-1-1-1-0-3--|
A|------------5------------3--------------------|
E|-----3----------------------------------------|

Parte 2 de 4
G|----------------------------------------------|
D|----------------3-----------------------------|
A|-5-5-3-2-3--2-3---5-5-3-3-2-5---2-3-4---------|
E|------------------------------3---------------|

G|----------------------------------------------|
D|----------------3-----------------------------|
A|-5-5-3-2-3--2-3---5-5-3-3-2-2-3--2-3-4--------|
E|----------------------------------------------|

Parte 3 de 4 ( 3x )
G|----------------------------------------------|
D|--------------------10-8-7--------------------|
A|-6-6---6-6-6---6--8--------8----8-8-8-10-8----|
E|-----6-------8----------------8---------------|

Parte 4 de 4
G|----------------------------------------------|
D|--------------------10-8-7--------------------|
A|-6-6---6-6-6---6--8--------8---8-8---8-8------|
E|-----6-------8---------------8-----8-----8\---|


[Refrão 01]

Where are you going for tomorrow? 

Parte 1 de 2( 3x )
G|----------------------------------------------|
D|----------------------------------------------|
A|----------------------------------------------|
E|-3-3-3-3-3--3-1-1-1-1-1--1--0-0-0-0-0---------|

G|----------------------------------------------|
D|----------------------------------------------|
A|-6-6-6-6-6--5---------------------------------|
E|----------------------------------------------|

Parte 2 de 2
G|----------------------------------------------|
D|----------------------------------------------|
A|----------------------------------------------|
E|-3-3-3-3-3--3-1-1-1-1-1--1--0-0-0-0-0---------|

G|----------------------------------------------|
D|----------------------------------------------|
A|-6-5------------------------------------------|
E|----------------------------------------------|


[Introdução 3]

Parte 1 
G|----------------------------------------------|
D|----------------------------------------------|
A|-----1-1---1-2-3-3-----2-3-4-5---1-1---1-2----|
E|-3-3-----3---------3-3---------3-----3--------|

G|----------------------------------------------|
D|----------------------------------------------|
A|-3-3-----2-3-4-5---1-1---1-2-3-3-----2-3-4-5--|
E|-----3-3---------3-----3---------3-3----------|

G|----------------------------------------------|
D|----------------------------------------------|
A|---1-1---1-2-3-3------------------------------|
E|-3-----3---------3----------------------------|


[Terceira parte]

Where are you going for tomorrow? 

Parte 1 de 2( 3x )
G|----------------------------------------------|
D|--------------------10-8-7--------------------|
A|-6-6---6-6-6---6--8--------8----8-8-8-10-8----|
E|-----6-------8----------------8---------------|

Parte 2 de 2
G|----------------------------------------------|
D|--------------------10-8-7--------------------|
A|-6-6---6-6-6---6--8--------8---8-8---8-8---8\-|
E|-----6-------8---------------8-----8-----8----|


[Refrão 02]

Where are you going for tomorrow? 

Parte 1 de 2( 3x )
G|----------------------------------------------|
D|----------------------------------------------|
A|----------------------------------------------|
E|-3-3-3-3-3--3-1-1-1-1-1--1--0-0-0-0-0---------|

G|----------------------------------------------|
D|----------------------------------------------|
A|-6-6-6-6-6--5---------------------------------|
E|----------------------------------------------|

Parte 2 de 2
G|----------------------------------------------|
D|----------------------------------------------|
A|----------------------------------------------|
E|-3-3-3-3-3--3-1-1-1-1-1--1--0-0-0-0-0---------|

G|----------------------------------------------|
D|----------------------------------------------|
A|-6-5------------------------------------------|
E|----------------------------------------------|


[Introdução 4 - Final]

Parte 1 
G|----------------------------------------------|
D|----------------------------------------------|
A|-----1-1---1-2-3-3-----2-3-4-5---1-1---1-2----|
E|-3-3-----3---------3-3---------3-----3--------|

G|----------------------------------------------|
D|----------------------------------------------|
A|-3-3-----2-3-4-5---1-1---1-2-3-3-----2-3-4-5--|
E|-----3-3---------3-----3---------3-3----------|

G|----------------------------------------------|
D|----------------------------------------------|
A|---1-1---1-2-3-3------------------------------|
E|-3-----3---------3----------------------------|
exibições 37.611
Composição: Robert DeLeo / Scott Weiland Colaboração e revisão:
  • Reginaldo Costa
  • Gabriel Leite

0 comentários

mostrar mais comentários
00:00 / 00:00
outros vídeos desta música
repetir qualidade Automático
Outros vídeos desta música
00:00 / 00:00
Automático
Capítulos
  • Tocando a Música
  • Apresentação / Equipamentos
  • TAB - Introdução
  • TAB - Primeira Parte
  • TAB - Introdução 2
  • Dicas Segunda Parte - Final
  • TAB - Refrão 1
  • TAB - Terceira Parte
  • Encerramento
OK