Cifra Club

Press Play

Stone Temple Pilots

Cifra: Principal (violão e guitarra)
Tom: G
#

From: Kevin Gardner 
Date: Tue, 2 Jul 1996 14:24:24 -0400 (EDT)


===========
===========
transcribed by Kevin Gardner *

-12--0------|
-12---0-----|
-12----0----|
-12-----4---|
---------2--|
----------0-|
Harm


-12--------------- |  \
-12--7--5------ -- |
-12--7--5--7-7---- |  8X
-12--7--5--7-7- -- |
--------------- -- |
------------------ |  /
H a r m o n i c s

-12--12--0------|
-12--12---0-----|
-12--12----0----|
-12--12-----4---|
-------------2--|
--------------0-|
Harm

-12--------------- |  \
-12--7--5------ -- |
-12--7--5--7-7---- |  repeat and fade
-12--7--5--7-7- -- |
--------------- -- |
------------------ |  /
H a r m o n i c s
exibições 443
Acordes para:
    Composição: Stone Temple Pilots

    0 comentários

    mostrar mais comentários

    Conseguiu tocar?

    0 tocaram 0 ainda não

    Grave um vídeo tocando Press Play e mande pra gente!

    00:00 / 00:00
    outros vídeos desta música
    repetir qualidade Automático
    Outros vídeos desta música
    00:00 / 00:00
    Automático
    OK