Cifra Club

Aprenda

Too Cool Queenie

Stone Temple Pilots

Cifra: Principal (violão e guitarra)
Tom: F
Main Riff  (Play 2x):
    D            C6     Bb/D       C6       Bb/D                F
E|-------------------|-------------------|------------------|----------------|
B|------10--------8--|-6------6-----8----|-6------6---------|----------------|
G|------11--------0--|--------------0----|------------------|----------------|
D|------12--------7--|-0------0-----7----|-0------0----8-8\-|-\3---3--3-3-3--|
A|------12--------7--|-5------5-----7----|-5------5----8-8\-|-\3---3--3-3-3--|
E|-/10----------8----|-6------6---8------|-6------6----6-6\-|-\1---1--1-1-1--|
for C6, best fingering is low to high ring(fret 8), index(7), middle(7), pinky(8).

For Verse, play Main Riff 2x

Chorus:
E|-----------------|-----------------|-----------------|------------------|
B|-----------------|-----------------|-----------------|------------------|
G|-----------------|-----------------|-----------------|------------------|
D|-2----2----------|-------------0-2-|-----------------|-6----6-----------|
A|-0----0----0-2-4-|-3----3----3-----|-1----1----1-3-5-|-4----4--6----6-6-|
E|-----------------|-3----3----------|-1----1----------|---------4----4-4-|
"She would always  party, it was no surprise, it was for her"
     crash the

First chorus ending (slower, w/ phaser)
E|-----------------|-----------------|
B|-6---------------|-6---------------|
G|-7---------------|-6---------------|
D|-8---------------|-8---------------|
A|-8---------------|-8---------------|
E|-6---------------|-6---------------|
                   "Too Cool Queenie"

Play Main riff 3x

Play Chorus


Bridge:                                         w/ modulation or wah?
E|----------------------|---------------------|---------------------------|
B|----------------------|---------------------|---------------------------|
G|----------------------|---------------------|---------------------------|
D|-x-x-8--x-x-----------|-6--6-x-x------------|---------------------------|
A|-x-x-6--x-x-8------8--|-4--4-x-x---6-----6--|---------------------------|
E|-x-x----x-x-6------6--|------x-x---4-----4--|-4-6--4-6--4-6--4-6--4-6-6-|


E|----------------------|----------------------|-----------------------|
B|----------------------|----------------------|-----------------------|
G|----------------------|----------------------|-----------------------|
D|-6---x-x--------------|-x-x-8--x-x-----------|-6-6---x-x-------------|
A|-4---x-x--6-----6-----|-x-x-6--x-x-8------8--|-4-4---x-x---6---6-6---|
E|----------4-----4-----|-x-x----x-x-6------6--|-------x-x---4---4-4---|
"It's ok cause what goes around comes around. It's all right cause what"


E|-1---------------|-1---------------|
B|-1---------------|-1---------------|
G|-2---------------|-2---------------|
D|-3---------------|-3---------------|
A|-3---------------|-3---------------|
E|-1---------------|-1---------------|
"goes around,      comes around."


Solo (Rhythm guitar plays main riff):
E|-------------------------------------|---------------------------------|
B|-------------------------------------|---------------------------------|
G|-12b14____r12p10--12b14r12-p10-12b14-|-10qb---------12b14r12-p10-12b14-|
D|-------------------------------------|------12~~-----------------------|
A|-------------------------------------|---------------------------------|
E|-------------------------------------|---------------------------------|

E|------------------------------|------------------------------------------|
B|------------------------------|------------------------------------------|
G|-10qb-------------------------|--------------------------------------10--|
D|-------12~~----10h12-10-------|------------------------------------10----|
A|------------------------10h12-|------------------10-12p10--12p10h12------|
E|------------------------------|-13~~--------10h13--------13--------------|

E|--------------------------------------|------------------12-12h13h12---|
B|--------------------------------------|-13b15~~------/15------------15-|
G|-12b14____r12p10---12b14r12-p10-12p10-|--------------------------------|
D|--------------------------------------|--------------------------------|
A|--------------------------------------|--------------------------------|
E|--------------------------------------|--------------------------------|

E|-12~-----------------------|-----13----------13-----13-------|
B|---------------13b15b13----|-----16b18~-16b18--16b18--16b18--|
G|------------------------15-|-14------------------------------|
D|---------------------------|---------------------------------|
A|---------------------------|---------------------------------|
E|---------------------------|---------------------------------|

Play Main Riff again to end song

key:
/ or \ - Slide up to or down from note
b      - bend
r      - release
~      - vibrato
h      - hammer-on
p      - pull-off
Composição de Dean DeLeo / Scott Weiland
Colaboração e revisão:
  • Gustavo Maia
401 exibições
    • ½ Tom
    • A
    • Bb
    • B
    • C
    • Db
    • D
    • Eb
    • E
    • F
    • F#
    • G
    • Ab
  • Adicionar à lista

    0 comentários

    Mostrar mais comentários

    Conseguiu tocar?

    0 Tocaram 0 Ainda não

    Grave um vídeo tocando Too Cool Queenie e mande pra gente!

    00:00 / 00:00
    outros vídeos desta música
    repetir qualidade Automático
    Outros vídeos desta música
    00:00 / 00:00
    Automático

    Cifra Club Pro

    Aproveite o Cifra Club com benefícios exclusivos e sem anúncios
    Cifra Club Pro
    Aproveite o Cifra Club com benefícios exclusivos e sem anúncios
    OK