Cifra Club

Aprenda

Vasoline

Stone Temple Pilots

Cifra: Principal (violão e guitarra)
Tom: D
E|-|-----------------|--------------------------------||----------------|
B|-|-----------------|--------------------------------||----------------|
G|-|-----------------|--------------------------------||----------------|
D|-|-----------------|--------------------------------||----------------|
A|-|-1~~~~~~~~~~~~~~-|-0h1-0h1-0h1-0h1-0h1-0h1-0h1-0h1||-1-0-0----------|
E|-|-----------------|--------------------------------||-------4-4-3-3-2|

(riff principal)

F G F G

E|-|---------------|--------------|--------------|--------------|--------------|
B|-|---------------|--------------|--------------|--------------|--------------|
G|-|---------------|--------------|--------------|--------------|--------------|
D|-|---------------|--------------|--------------|--------------|--------------|
A|-|---------------|--------------|--------------|--------------|--------------|
E|-|-1-3--1-3--1-3-|1-3--1-3--1-3-|1-3--1-3--1-3-|1-3--1-3--1-3-|1-3--1-3--1-3-|

E|-|-----------------------||
B|-|-----------------------||
G|-|-----------------------||
D|-|-----------------------||
A|-|---------------1-1-1-1-||
E|-|-1-3bend(full)-0-0-0-0-||

(chorus)
E|---------------------------------------------------------------------|
B|-8--8--8--8--8--8--8--8--8--8--8--8--8--8--8--8--8--8--8--8--8--8--8-|
G|-8--8--8--8--8--8--8--8--8--8--8--8--8--8--8--8--8--8--8--8--8--8--8-|
D|-8--8--8--8--8--8--8--8--8--8--8--8--8--8--8--8--8--8--8--8--8--8--8-|
A|-6--6--6--6--6--6--6--6--6--6--6--6--6--6--6--6--6--6--6--6--6--6--6-|
E|---------------------------------------------------------------------|

E|---------------------------|
B|-8--8--8--8--8--8--7---6--5|
G|-8--8--8--8--8--8--7---6--5|
D|-8--8--8--8--8--8--7---6--5|
A|-6--6--6--6--6--6--5---4--3|
E|---------------------------|

E|---------------------------------------------------------------------|
B|-5--5--5--5--5--5--5--5--5--5--5--5--5--5--5--5--5--5--5--5--5--5--5-|
G|-5--5--5--5--5--5--5--5--5--5--5--5--5--5--5--5--5--5--5--5--5--5--5-|
D|-5--5--5--5--5--5--5--5--5--5--5--5--5--5--5--5--5--5--5--5--5--5--5-|
A|-3--3--3--3--3--3--3--3--3--3--3--3--3--3--3--3--3--3--3--3--3--3--3-|
E|---------------------------------------------------------------------|

E|----------------------------1--|
B|-5--5--5--5--5--5--5--5--5--1--|
G|-5--5--5--5--5--5--5--5--5--2--|
D|-5--5--5--5--5--5--5--5--5--3--|
A|-3--3--3--3--3--3--3--3--3--3--|
E|----------------------------1--|

(bridge)
E|---0---
B|---3---
G|---3---
D|---3---
A|---0---
E|-------
    You'll see the look, and you'll see the lies.  You'll eat the lies

(solo)

||-8p7-----8p7-----8p7---|---8p7-----8p7-----8p7-|-----8p7-----8p7-----|
||-----6-6-----6-6-----6-|-6-----6-6-----6-6-----|-6-6-----6-6-----6-6-|
||-----------------------|-----------------------|---------------------|
||-----------------------|-----------------------|---------------------|
||-----------------------|-----------------------|---------------------|
||-----------------------|-----------------------|---------------------|

 bf             b                              b  b          b&harm
------------------|-------------------------|---------------------|
-6---(6)~~~~~~----|-------------------------|---------------------|
----------------4-|-4p0-4p0-4p0-------------|--4--4-4p0---0--5~~~-|
------------------|-------------0-5p0-0-----|-----------0---------|
------------------|---------------------2-2-|---------------------|
------------------|-------------------------|---------------------|
Composição de Dean DeLeo / Eric Kretz / Robert DeLeo / Scott Weiland
Colaboração e revisão:
  • Gustavo Maia
5.911 exibições
  • Simplificar cifra
    • ½ Tom
    • A
    • Bb
    • B
    • C
    • Db
    • D
    • Eb
    • E
    • F
    • F#
    • G
    • Ab
  • Adicionar à lista

    0 comentários

    Mostrar mais comentários

    Conseguiu tocar?

    0 Tocaram 0 Ainda não

    Grave um vídeo tocando Vasoline e mande pra gente!

    00:00 / 00:00
    outros vídeos desta música
    repetir qualidade Automático
    Outros vídeos desta música
    00:00 / 00:00
    Automático

    Cifra Club Pro

    Aproveite o Cifra Club com benefícios exclusivos e sem anúncios
    7 dias grátis
    Cifra Club Pro
    Aproveite o Cifra Club com benefícios exclusivos e sem anúncios
    7 dias grátis
    OK