Cifra Club

Aprenda

Wicked Garden

Stone Temple Pilots

Cifra: Principal (violão e guitarra)
Tom: A
Intro:
      G5    D5   A5
E|----3-------------        at the end of     e:------------
B|----3----2--------        the fourth time   B:------------
G|----0----3----2---  X4    play this slide   G:----9/14~~~~
D|----0----0----2---                          D:----9/14~~~~
A|--------------0---                          A:----9/14~~~~
E|----3-------------                          E:------------

 riff 1 :
   G5 A5
E|-------------------------------------
B|-------------------------------------
G|------------------------------------- many times
D|-5/7-------7-------7-7-------7-----5-
A|-5/7-------7-------7-7-------7-----5-
E|-3/5-(5-5)-5-(5-5)-5-5-(5-5)-5-(5)-3-


 verse riff:
E|-------------------------------
B|-------------------------------
G|--------------------------7--6- X4
D|-5H7-7-7-7-7-7-7--7-7-7---7--7-
A|-0---0-0-0-0-0-0--0-0-0---0----
E|-------------------------------

Pre-Chorus:

riff 1  X4


Verse 2:

same as the first

Chorus:
    F#5        D5           B5
E|-----------------------------------------------------------
B|------------3----3-3---------------------------------------
G|------------2----2-2-----4---4-4---4---4-4---4-4---4-4-4---X2
D|--4---4-----0----0-0-----4---4-4---4---4-4---4-4---4-4-4-4-
A|--4---4----------------0-2---0-2---2---0-2---0-2---0-2-0-4-
E|--2---2---0----------------------------------------------2-

  can  you    see       just like a  child ?


    E7
E|--0--0-0-0-0-0--0--0--0-0-0-0-0--
B|--0--0-0-0-0-0--0--0--0-0-0-0-0--
G|--1--1-1-1-1-1--1--1--1-1-1-1-1--
D|--0--0-0-0-0-0--0--0--0-0-0-0-0--
A|--2--2-2-2-2-2--2--2--2-2-2-2-2--
E|--0--0-0-0-0-0--0--0--0-0-0-0-0--
  alive   ehay  ehay  ehay ehay......

Pós-Chorus

     G5    F#5          A5
E|---------------------------------------------------------------
B|---------------------------------------------------------------
G|---------------------------------------------------------------
D|--5---5-4---5---4-5---7--7------4-5---5-4---5---4-5---7--7--xx-
A|--5---5-4---5---4-5---7--7------4-5---5-4---5---4-5---7--7--xx-
E|--3---3-2---3---2-3---5--5----0-2-3---3-2---3---2-3---5--5--xx-

 burn,                      burn       burn............
      (burn, burn,burn, )


riff 1


Verse 3:

Pre chorus:

chorus:

heavy part:


Letra
Can you see like a child?
Can you see what i want?

I wanna run through your wicked garden
Heard that's the the place to find you
'cause i'm alive, so alive now
I know the darkness blinds you

Can you see without eyes?
Can you speak without lies?

I wanna drink from your wicked fountain
I can drown your sorrows
I'm gonna burn, burn you to life now
Out of the chains that blind you

Can you see just like a child?
Can you see just what i want?
Can i bring you back to life?
Are you still alive?

Burn...burn, burn....
burn your wicked graden down
burn...burn, burn....
Burn your wicked garden to the ground....yeah.
Composição de Dean DeLeo / Robert DeLeo / Scott Weiland
Colaboração e revisão:
  • Jander Nikolaus
4.974 exibições
    • ½ Tom
    • A
    • Bb
    • B
    • C
    • Db
    • D
    • Eb
    • E
    • F
    • F#
    • G
    • Ab
  • Adicionar à lista

    0 comentários

    Mostrar mais comentários

    Conseguiu tocar?

    1 Tocaram 0 Ainda não

    Grave um vídeo tocando Wicked Garden e mande pra gente!

    00:00 / 00:00
    outros vídeos desta música
    repetir qualidade Automático
    Outros vídeos desta música
    00:00 / 00:00
    Automático

    Cifra Club Pro

    Aproveite o Cifra Club com benefícios exclusivos e sem anúncios
    7 dias grátis
    Cifra Club Pro
    Aproveite o Cifra Club com benefícios exclusivos e sem anúncios
    7 dias grátis
    OK