Cifra Club

Grande

Stravaganzza

Cifra: Principal (violão e guitarra)
tom: E
             E                      E  E  E  E  E  E  E
E||-------|E|---------------|E|---------------|E|---------------|-|
B||-------|E|---------------|E|---------------|E|---------------|-|
G||-------|E|---------------|E|---------------|E|---------------|-|
D||-------|--7E|---------------|-------7--7--7--7--7--7--7--|
A||-------|--5E|---------------|-------5--5--5--5--5--5--5--|
E||-------|E|---------------|E|---------------|E|---------------|-|


  E  E  E  E  E  E  E  E     E  E  E  E  E  E  E  E
E|E|---------------|-----------|E|---------------|-----------|
B|E|---------------|-----------|E|---------------|-----------|
G|E|---------------|-----------|E|---------------|-----------|
D|--7--7--7--7--7--7--7--7--|--8--8--8--8--8--8--8--8--|
A|--5--5--5--5--5--5--5--5--|--6--6--6--6--6--6--6--6--|
E|E|---------------|-----------|E|---------------|-----------|

  E  E  E  E  E  E  E  E     E  E  E  E  E  E  E  E
E|E|---------------|-----------|E|---------------|-----------|
B|E|---------------|-----------|E|---------------|-----------|
G|E|---------------|-----------|E|---------------|-----------|
D|--8--8--8--8--8--8--8--8--|--3--3--3--3--3--3--3--3--|
A|--6--6--6--6--6--6--6--6--|--1--1--1--1--1--1--1--1--|
E|E|---------------|-----------|E|---------------|-----------|

  E  E  E  E  E  E  E  E     E  E  E  E  E  E  E  E
E|E|---------------|-----------|E|---------------|-----------|
B|E|---------------|-----------|E|---------------|-----------|
G|E|---------------|-----------|E|---------------|-----------|
D|--3--3--3--3--3--3--3--3--|--7--7--7--7--7--7--7--7--|
A|--1--1--1--1--1--1--1--1--|--5--5--5--5--5--5--5--5--|
E|E|---------------|-----------|E|---------------|-----------|

  E  E  E  E  E  E  E  E     E  E  E  E  E  E  E  E
E|E|---------------|-----------|E|---------------|-----------|
B|E|---------------|-----------|E|---------------|-----------|
G|E|---------------|-----------|E|---------------|-----------|
D|--7--7--7--7--7--7--7--7--|--7--7--7--7--7--7--7--7--|
A|--5--5--5--5--5--5--5--5--|--5--5--5--5--5--5--5--5--|
E|E|---------------|-----------|E|---------------|-----------|

  E  E  E  E  E  E  E  E     E  E  E  E  E  E  E  E
E|E|---------------|-----------|E|---------------|-----------|
B|E|---------------|-----------|E|---------------|-----------|
G|E|---------------|-----------|E|---------------|-----------|
D|--7--7--7--7--7--7--7--7--|--8--8--8--8--8--8--8--8--|
A|--5--5--5--5--5--5--5--5--|--6--6--6--6--6--6--6--6--|
E|E|---------------|-----------|E|---------------|-----------|

  E  E  E  E  E  E  E  E     E  E  E  E  E  E  E  E
E|E|---------------|-----------|E|---------------|-----------|
B|E|---------------|-----------|E|---------------|-----------|
G|E|---------------|-----------|E|---------------|-----------|
D|--8--8--8--8--8--8--8--8--|--3--3--3--3--3--3--3--3--|
A|--6--6--6--6--6--6--6--6--|--1--1--1--1--1--1--1--1--|
E|E|---------------|-----------|E|---------------|-----------|

  E  E  E  E  E  E  E  E     E  E  E  E  E  E  E  E
E|E|---------------|-----------|E|---------------|-----------|
B|E|---------------|-----------|E|---------------|-----------|
G|E|---------------|-----------|E|---------------|-----------|
D|--3--3--3--3--3--3--3--3--|--7--7--7--7--7--7--7--7--|
A|--1--1--1--1--1--1--1--1--|--5--5--5--5--5--5--5--5--|
E|E|---------------|-----------|E|---------------|-----------|

  E  E  E  E  E  E  E  E     E  E  E  E  E  E  E  E
E|E|---------------|-----------|E|---------------|-----------|
B|E|---------------|-----------|E|---------------|-----------|
G|E|---------------|-----------|E|---------------|-----------|
D|--7--7--7--7--7--7--7--7--|--x--x--x--7-----x--x--7--|
A|--5--5--5--5--5--5--5--5--|--x--x--x--5-----x--x--5--|
E|E|---------------|-----------|E|---------------|-----------|


              PM PM PM PM PM PM PM PM
  E  E  E  E  S  S  S  S  S  S  S  S     E  E  E  E  E  E  E  E
E|E|---------------|E|---------------|--------|E|---------------|-----------|
B|E|---------------|E|---------------|--------|E|---------------|-----------|
G|E|---------------|E|---------------|--------|E|---------------|-----------|
D|-----x--x--7--7--7--7--7--7--7--7--7--|--x--x--x--8-----x--x--8--|
A|-----x--x--5--5--5--5--5--5--5--5--5--|--x--x--x--6-----x--x--6--|
E|E|---------------|E|---------------|--------|E|---------------|-----------|


              PM PM PM PM PM PM PM PM
  E  E  E  E  S  S  S  S  S  S  S  S     E  E  E  E  E  E  E  E
E|E|---------------|E|---------------|--------|E|---------------|-----------|
B|E|---------------|E|---------------|--------|E|---------------|-----------|
G|E|---------------|E|---------------|--------|E|---------------|-----------|
D|-----x--x--8--8--8--8--8--8--8--8--8--|--x--x--x--3-----x--x--3--|
A|-----x--x--6--6--6--6--6--6--6--6--6--|--x--x--x--1-----x--x--1--|
E|E|---------------|E|---------------|--------|E|---------------|-----------|


              PM PM PM PM PM PM PM PM
  E  E  E  E  S  S  S  S  S  S  S  S     E  E  E  E  E  E  E  E
E|E|---------------|E|---------------|--------|E|---------------|-----------|
B|E|---------------|E|---------------|--------|E|---------------|-----------|
G|E|---------------|E|---------------|--------|E|---------------|-----------|
D|-----x--x--3--3--3--3--3--3--3--3--3--|--x--x--x--7-----x--x--7--|
A|-----x--x--1--1--1--1--1--1--1--1--1--|--x--x--x--5-----x--x--5--|
E|E|---------------|E|---------------|--------|E|---------------|-----------|


              PM PM PM PM PM PM PM PM
  E  E  E  E  S  S  S  S  S  S  S  S     E  E  E  E  E  E  E  E
E|E|---------------|E|---------------|--------|E|---------------|-----------|
B|E|---------------|E|---------------|--------|E|---------------|-----------|
G|E|---------------|E|---------------|--------|E|---------------|-----------|
D|-----x--x--7--7--7--7--7--7--7--7--7--|--x--x--x--7-----x--x--7--|
A|-----x--x--5--5--5--5--5--5--5--5--5--|--x--x--x--5-----x--x--5--|
E|E|---------------|E|---------------|--------|E|---------------|-----------|


              PM PM PM PM PM PM PM PM
  E  E  E  E  S  S  S  S  S  S  S  S     E  E  E  E  E  E  E  E
E|E|---------------|E|---------------|--------|E|---------------|-----------|
B|E|---------------|E|---------------|--------|E|---------------|-----------|
G|E|---------------|E|---------------|--------|E|---------------|-----------|
D|-----x--x--7--7--7--7--7--7--7--7--7--|--x--x--x--8-----x--x--8--|
A|-----x--x--5--5--5--5--5--5--5--5--5--|--x--x--x--6-----x--x--6--|
E|E|---------------|E|---------------|--------|E|---------------|-----------|


              PM PM PM PM PM PM PM PM
  E  E  E  E  S  S  S  S  S  S  S  S     E  E  E  E  E  E  E  E
E|E|---------------|E|---------------|--------|E|---------------|-----------|
B|E|---------------|E|---------------|--------|E|---------------|-----------|
G|E|---------------|E|---------------|--------|E|---------------|-----------|
D|-----x--x--8--8--8--8--8--8--8--8--8--|--x--x--x--3-----x--x--3--|
A|-----x--x--6--6--6--6--6--6--6--6--6--|--x--x--x--1-----x--x--1--|
E|E|---------------|E|---------------|--------|E|---------------|-----------|


              PM PM PM PM PM PM PM PM
  E  E  E  E  S  S  S  S  S  S  S  S     E  E  E  E  E  E  E  E
E|E|---------------|E|---------------|--------|E|---------------|-----------|
B|E|---------------|E|---------------|--------|E|---------------|-----------|
G|E|---------------|E|---------------|--------|E|---------------|-----------|
D|-----x--x--3--3--3--3--3--3--3--3--3--|--x--x--x--7-----x--x--7--|
A|-----x--x--1--1--1--1--1--1--1--1--1--|--x--x--x--5-----x--x--5--|
E|E|---------------|E|---------------|--------|E|---------------|-----------|


              PM PM PM PM PM PM PM PM
  E  E  E  E  S  S  S  S  S  S  S  S     H        E  E  Q
E|E|---------------|E|---------------|--------|E|---------------|-------|
B|E|---------------|E|---------------|--------|E|---------------|-------|
G|E|---------------|E|---------------|--------|E|---------------|-------|
D|-----x--x--7--7--7--7--7--7--7--7--7--|--7--------7--7--5----|
A|-----x--x--5--5--5--5--5--5--5--5--5--|--5--------5--5--3----|
E|E|---------------|E|---------------|--------|E|---------------|-------|

  Q    H        Q       Q    Q    Q    Q       Q    Q    E  E  Q
E|E|---------------|------|E|---------------|-------|E|---------------|--------|
B|E|---------------|------|E|---------------|-------|E|---------------|--------|
G|E|---------------|------|E|---------------|-------|E|---------------|--------|
--L----5-------------|E|---------------|-------|E|---------------|--------|
--L----3--------7----|--L----7----7----7----|--7----7----7--7--7----|
E|E|---------------|-5----|--| L----5----5----5----|--5----5----5--5--5----|

  H        E  E  Q       Q    H        Q       W
E|E|---------------|-------|E|---------------|------|E|---------------|----|
B|E|---------------|-------|E|---------------|------|E|---------------|----|
G|E|---------------|-------|E|---------------|------|E|---------------|----|
D|--7--------7--7--5----|--| L----5--------8----|--LE|---------------|-|
A|--5--------5--5--3----|--| L----3--------6----|--LE|---------------|-|
E|E|---------------|-------|E|---------------|------|E|---------------|----|


             NH
  H          H           H        E  E  Q       Q    H        Q
E|E|---------------|-------|E|---------------|-------|E|---------------|------|
B|E|---------------|-------|E|---------------|-------|E|---------------|------|
G|-----------| <>5--------|E|---------------|-------|E|---------------|------|
--LE|---------------|----|--7--------7--7--5----|--L----5-------------|
--LE|---------------|----|--5--------5--5--3----|--L----3--------7----|
E|E|---------------|-------|E|---------------|-------|E|---------------|-5----|

  Q    Q    Q    Q       Q    Q    E  E  Q       H        E  E  Q
E|E|---------------|-------|E|---------------|--------|E|---------------|-------|
B|E|---------------|-------|E|---------------|--------|E|---------------|-------|
G|E|---------------|-------|E|---------------|--------|E|---------------|-------|
D|E|---------------|-------|E|---------------|--------|--7--------7--7--5----|
--L----7----7----7----|--7----7----7--7--7----|--5--------5--5--3----|
--L----5----5----5----|--5----5----5--5--5----|E|---------------|-------|


  Q    H        Q       W                   W
E|E|E|---------------|------|E|---------------|----|E|---------------|----|
B|E|E|---------------|------|E|---------------|----|E|---------------|----|
G|E|E|---------------|------|E|---------------|----|E|---------------|----|
--L----5--------8----|--LE|---------------|-|--LE|---------------|-|
--L----3--------6----|--LE|---------------|-|--LE|---------------|-|
E|E|---------------|------|E|---------------|----|E|---------------|----|

  E  E  E  E  E  E  E  E     E  E  E  E  E  E  E  E
E|E|---------------|-----------|E|---------------|-----------|
B|E|---------------|-----------|E|---------------|-----------|
G|E|---------------|-----------|E|---------------|-----------|
D|--7--7--7--7--7--7--7--7--|--7--7--7--7--7--7--7--7--|
A|--5--5--5--5--5--5--5--5--|--5--5--5--5--5--5--5--5--|
E|E|---------------|-----------|E|---------------|-----------|

  E  E  E  E  E  E  E  E     E  E  E  E  E  E  E  E
E|E|---------------|-----------|E|---------------|-----------|
B|E|---------------|-----------|E|---------------|-----------|
G|E|---------------|-----------|E|---------------|-----------|
D|--8--8--8--8--8--8--8--8--|--8--8--8--8--8--8--8--8--|
A|--6--6--6--6--6--6--6--6--|--6--6--6--6--6--6--6--6--|
E|E|---------------|-----------|E|---------------|-----------|

  E  E  E  E  E  E  E  E     E  E  E  E  E  E  E  E
E|E|---------------|-----------|E|---------------|-----------|
B|E|---------------|-----------|E|---------------|-----------|
G|E|---------------|-----------|E|---------------|-----------|
D|--3--3--3--3--3--3--3--3--|--3--3--3--3--3--3--3--3--|
A|--1--1--1--1--1--1--1--1--|--1--1--1--1--1--1--1--1--|
E|E|---------------|-----------|E|---------------|-----------|

  E  E  E  E  E  E  E  E     E  E  E  E  E  E  E  E
E|E|---------------|-----------|E|---------------|-----------|
B|E|---------------|-----------|E|---------------|-----------|
G|E|---------------|-----------|E|---------------|-----------|
D|--7--7--7--7--7--7--7--7--|--7--7--7--7--7--7--7--7--|
A|--5--5--5--5--5--5--5--5--|--5--5--5--5--5--5--5--5--|
E|E|---------------|-----------|E|---------------|-----------|

  E  E  E  E  E  E  E  E     E  E  E  E  E  E  E  E
E|E|---------------|-----------|E|---------------|-----------|
B|E|---------------|-----------|E|---------------|-----------|
G|E|---------------|-----------|E|---------------|-----------|
D|--7--7--7--7--7--7--7--7--|--7--7--7--7--7--7--7--7--|
A|--5--5--5--5--5--5--5--5--|--5--5--5--5--5--5--5--5--|
E|E|---------------|-----------|E|---------------|-----------|

  E  E  E  E  E  E  E  E     E  E  E  E  E  E  E  E
E|E|---------------|-----------|E|---------------|-----------|
B|E|---------------|-----------|E|---------------|-----------|
G|E|---------------|-----------|E|---------------|-----------|
D|--8--8--8--8--8--8--8--8--|--8--8--8--8--8--8--8--8--|
A|--6--6--6--6--6--6--6--6--|--6--6--6--6--6--6--6--6--|
E|E|---------------|-----------|E|---------------|-----------|

  E  E  E  E  E  E  E  E     E  E  E  E  E  E  E  E
E|E|---------------|-----------|E|---------------|-----------|
B|E|---------------|-----------|E|---------------|-----------|
G|E|---------------|-----------|E|---------------|-----------|
D|--3--3--3--3--3--3--3--3--|--3--3--3--3--3--3--3--3--|
A|--1--1--1--1--1--1--1--1--|--1--1--1--1--1--1--1--1--|
E|E|---------------|-----------|E|---------------|-----------|

  E  E  E  E  E  E  E  E     E  E  E  E  E  E  E  E
E|E|---------------|-----------|E|---------------|-----------|
B|E|---------------|-----------|E|---------------|-----------|
G|E|---------------|-----------|E|---------------|-----------|
D|--7--7--7--7--7--7--7--7--|--7--7--7--7--7--7--7--7--|
A|--5--5--5--5--5--5--5--5--|--5--5--5--5--5--5--5--5--|
E|E|---------------|-----------|E|---------------|-----------|


                                         PM PM PM PM PM PM PM PM
  E  E  E  E  E  E  E  E     E  E  E  E  S  S  S  S  S  S  S  S
E|E|---------------|-----------|E|---------------|E|---------------|--------|
B|E|---------------|-----------|E|---------------|E|---------------|--------|
G|E|---------------|-----------|E|---------------|E|---------------|--------|
D|--x--x--x--7-----x--x--7--|-----x--x--7--7--7--7--7--7--7--7--7--|
A|--x--x--x--5-----x--x--5--|-----x--x--5--5--5--5--5--5--5--5--5--|
E|E|---------------|-----------|E|---------------|E|---------------|--------|


                                         PM PM PM PM PM PM PM PM
  E  E  E  E  E  E  E  E     E  E  E  E  S  S  S  S  S  S  S  S
E|E|---------------|-----------|E|---------------|E|---------------|--------|
B|E|---------------|-----------|E|---------------|E|---------------|--------|
G|E|---------------|-----------|E|---------------|E|---------------|--------|
D|--x--x--x--8-----x--x--8--|-----x--x--8--8--8--8--8--8--8--8--8--|
A|--x--x--x--6-----x--x--6--|-----x--x--6--6--6--6--6--6--6--6--6--|
E|E|---------------|-----------|E|---------------|E|---------------|--------|


                                         PM PM PM PM PM PM PM PM
  E  E  E  E  E  E  E  E     E  E  E  E  S  S  S  S  S  S  S  S
E|E|---------------|-----------|E|---------------|E|---------------|--------|
B|E|---------------|-----------|E|---------------|E|---------------|--------|
G|E|---------------|-----------|E|---------------|E|---------------|--------|
D|--x--x--x--3-----x--x--3--|-----x--x--3--3--3--3--3--3--3--3--3--|
A|--x--x--x--1-----x--x--1--|-----x--x--1--1--1--1--1--1--1--1--1--|
E|E|---------------|-----------|E|---------------|E|---------------|--------|


                                         PM PM PM PM PM PM PM PM
  E  E  E  E  E  E  E  E     E  E  E  E  S  S  S  S  S  S  S  S
E|E|---------------|-----------|E|---------------|E|---------------|--------|
B|E|---------------|-----------|E|---------------|E|---------------|--------|
G|E|---------------|-----------|E|---------------|E|---------------|--------|
D|--x--x--x--7-----x--x--7--|-----x--x--7--7--7--7--7--7--7--7--7--|
A|--x--x--x--5-----x--x--5--|-----x--x--5--5--5--5--5--5--5--5--5--|
E|E|---------------|-----------|E|---------------|E|---------------|--------|


                                         PM PM PM PM PM PM PM PM
  E  E  E  E  E  E  E  E     E  E  E  E  S  S  S  S  S  S  S  S
E|E|---------------|-----------|E|---------------|E|---------------|--------|
B|E|---------------|-----------|E|---------------|E|---------------|--------|
G|E|---------------|-----------|E|---------------|E|---------------|--------|
D|--x--x--x--7-----x--x--7--|-----x--x--7--7--7--7--7--7--7--7--7--|
A|--x--x--x--5-----x--x--5--|-----x--x--5--5--5--5--5--5--5--5--5--|
E|E|---------------|-----------|E|---------------|E|---------------|--------|


                                         PM PM PM PM PM PM PM PM
  E  E  E  E  E  E  E  E     E  E  E  E  S  S  S  S  S  S  S  S
E|E|---------------|-----------|E|---------------|E|---------------|--------|
B|E|---------------|-----------|E|---------------|E|---------------|--------|
G|E|---------------|-----------|E|---------------|E|---------------|--------|
D|--x--x--x--8-----x--x--8--|-----x--x--8--8--8--8--8--8--8--8--8--|
A|--x--x--x--6-----x--x--6--|-----x--x--6--6--6--6--6--6--6--6--6--|
E|E|---------------|-----------|E|---------------|E|---------------|--------|


                                         PM PM PM PM PM PM PM PM
  E  E  E  E  E  E  E  E     E  E  E  E  S  S  S  S  S  S  S  S
E|E|---------------|-----------|E|---------------|E|---------------|--------|
B|E|---------------|-----------|E|---------------|E|---------------|--------|
G|E|---------------|-----------|E|---------------|E|---------------|--------|
D|--x--x--x--3-----x--x--3--|-----x--x--3--3--3--3--3--3--3--3--3--|
A|--x--x--x--1-----x--x--1--|-----x--x--1--1--1--1--1--1--1--1--1--|
E|E|---------------|-----------|E|---------------|E|---------------|--------|


                                         PM PM PM PM PM PM PM PM
  E  E  E  E  E  E  E  E     E  E  E  E  S  S  S  S  S  S  S  S
E|E|---------------|-----------|E|---------------|E|---------------|--------|
B|E|---------------|-----------|E|---------------|E|---------------|--------|
G|E|---------------|-----------|E|---------------|E|---------------|--------|
D|--x--x--x--7-----x--x--7--|-----x--x--7--7--7--7--7--7--7--7--7--|
A|--x--x--x--5-----x--x--5--|-----x--x--5--5--5--5--5--5--5--5--5--|
E|E|---------------|-----------|E|---------------|E|---------------|--------|

  H        E  E  Q       Q    H        Q       Q    Q    Q    Q
E|E|---------------|-------|E|---------------|------|E|---------------|-------|
B|E|---------------|-------|E|---------------|------|E|---------------|-------|
G|E|---------------|-------|E|---------------|------|E|---------------|-------|
D|--7--------7--7--5----|--| L----5-------------|E|---------------|-------|
A|--5--------5--5--3----|--| L----3--------7----|--L----7----7----7----|
E|E|---------------|-------|E|---------------|-5----|--| L----5----5----5----|

  Q    Q    E  E  Q       H        E  E  Q       Q    H        Q
E|E|---------------|--------|E|---------------|-------|E|---------------|------|
B|E|---------------|--------|E|---------------|-------|E|---------------|------|
G|E|---------------|--------|E|---------------|-------|E|---------------|------|
D|E|---------------|--------|--7--------7--7--5----|--| L----5--------8----|
A|--7----7----7--7--7----|--5--------5--5--3----|--| L----3--------6----|
E|--5----5----5--5--5----|E|---------------|-------|E|---------------|------|


                                 NH
  W                   H          H           H        E  E  Q
E|E|E|---------------|----|E|---------------|-------|E|---------------|-------|
B|E|E|---------------|----|E|---------------|-------|E|---------------|-------|
G|E|---------------|----|-----------| <>5--------|E|---------------|-------|
--LE|---------------|-|--LE|---------------|----|--7--------7--7--5----|
--LE|---------------|-|--LE|---------------|----|--5--------5--5--3----|
E|E|---------------|----|E|---------------|-------|E|---------------|-------|

  Q    H        Q       Q    Q    Q    Q       Q    Q    E  E  Q
E|E|---------------|------|E|---------------|-------|E|---------------|--------|
B|E|---------------|------|E|---------------|-------|E|---------------|--------|
G|E|---------------|------|E|---------------|-------|E|---------------|--------|
--L----5-------------|E|---------------|-------|E|---------------|--------|
--L----3--------7----|--L----7----7----7----|--7----7----7--7--7----|
E|E|---------------|-5----|--| L----5----5----5----|--5----5----5--5--5----|

  H        E  E  Q       Q    H        Q       W
E|E|---------------|-------|E|---------------|------|E|---------------|----|
B|E|---------------|-------|E|---------------|------|E|---------------|----|
G|E|---------------|-------|E|---------------|------|E|---------------|----|
D|--7--------7--7--5----|--| L----5--------8----|--LE|---------------|-|
A|--5--------5--5--3----|--| L----3--------6----|--LE|---------------|-|
E|E|---------------|-------|E|---------------|------|E|---------------|----|

  W                   Q    Q    Q    Q       Q    Q    Q    Q
E|E|---------------|----|E|---------------|-------|E|---------------|-------|
E|E|---------------|----|E|---------------|-------|E|---------------|-------|
E|E|---------------|----|E|---------------|-------|E|---------------|-------|
--LE|---------------|-|E|---------------|-------|E|---------------|-------|
--LE|---------------|-|--5----5----5----5----|--5----5----5----5----|
E|E|---------------|----|--3----3----3----3----|--3----3----3----3----|

  Q    Q    Q    Q       Q    Q    Q    Q       Q    Q    Q    Q
---E|E|---------------|----|E|---------------|-------|E|---------------|-------|
---E|E|---------------|----|E|---------------|-------|E|---------------|-------|
---E|E|---------------|----|E|---------------|-------|E|---------------|-------|
E|---------------|-------|E|---------------|-------|--8----8----8----8----|
--3----3----3----3----|--3----3----3----3----|--6----6----6----6----|
--1----1----1----1----|--1----1----1----1----|E|---------------|-------|

  Q    Q    Q    Q       Q    Q    Q    Q       Q    Q    Q    Q
---E|E|---------------|----|E|---------------|-------|E|---------------|-------|
---E|E|---------------|----|E|---------------|-------|E|---------------|-------|
---E|E|---------------|----|E|---------------|-------|E|---------------|-------|
--8----8----8----8----|--7----7----7----7----|--7E|---------------|----|
--6----6----6----6----|--5----5----5----5----|--5----3----3----3----|
E|---------------|-------|E|---------------|-------|-------1----1----1----|

  Q    Q    Q    Q       Q    Q    Q    Q       Q    Q    Q    Q
---E|E|---------------|----|E|---------------|-------|E|---------------|-------|
---E|E|---------------|----|E|---------------|-------|E|---------------|-------|
---E|E|---------------|----|E|---------------|-------|E|---------------|-------|
---E|E|---------------|----|E|---------------|-------|E|---------------|-------|
--5----5----5----5----|--5----5----5----5----|--3----3----3----3----|
--3----3----3----3----|--3----3----3----3----|--1----1----1----1----|

  Q    Q    Q    Q       Q    Q    Q    Q       Q    Q    Q    Q
---E|E|---------------|----|E|---------------|-------|E|---------------|-------|
---E|E|---------------|----|E|---------------|-------|E|---------------|-------|
---E|E|---------------|----|E|---------------|-------|E|---------------|-------|
E|---------------|-------|--8----8----8----8----|--8----8----8----8----|
--3----3----3----3----|--6----6----6----6----|--6----6----6----6----|
--1----1----1----1----|E|---------------|-------|E|---------------|-------|

  Q    Q    Q    Q       Q    Q    Q    Q       Q    Q    Q    Q
---E|E|---------------|----|E|---------------|-------|E|---------------|-------|
---E|E|---------------|----|E|---------------|-------|E|---------------|-------|
---E|E|---------------|----|E|---------------|-------|E|---------------|-------|
--7----7----7----7----|--7E|---------------|----|E|---------------|-------|
--5----5----5----5----|--5----3----3----3----|--5----5----5----5----|
E|---------------|-------|-------1----1----1----|--3----3----3----3----|

  Q    Q    Q    Q       Q    Q    Q    Q       Q    Q    Q    Q
---E|E|---------------|----|E|---------------|-------|E|---------------|-------|
---E|E|---------------|----|E|---------------|-------|E|---------------|-------|
---E|E|---------------|----|E|---------------|-------|E|---------------|-------|
---E|E|---------------|----|E|---------------|-------|E|---------------|-------|
--5----5----5----5----|--3----3----3----3----|--3----3----3----3----|
--3----3----3----3----|--1----1----1----1----|--1----1----1----1----|

  Q    Q    Q    Q       Q    Q    Q    Q       Q    Q    Q    Q
---E|E|---------------|----|E|---------------|-------|E|---------------|-------|
---E|E|---------------|----|E|---------------|-------|E|---------------|-------|
---E|E|---------------|----|E|---------------|-------|E|---------------|-------|
--8----8----8----8----|--8----8----8----8----|--7----7----7----7----|
--6----6----6----6----|--6----6----6----6----|--5----5----5----5----|
---E|E|---------------|----|E|---------------|-------|E|---------------|-------|

  Q    Q    Q    Q       Q    Q    Q    Q       Q    Q    Q    Q
---E|E|---------------|----|E|---------------|-------|E|---------------|-------|
---E|E|---------------|----|E|---------------|-------|E|---------------|-------|
---E|E|---------------|----|E|---------------|-------|E|---------------|-------|
--7E|E|---------------|----|E|---------------|-------|E|---------------|-------|
--5----3----3----3----|--5----5----5----5----|--5----5----5----5----|
-------1----1----1----|--3----3----3----3----|--3----3----3----3----|

  Q    Q    Q    Q       Q    Q    Q    Q       Q    Q    Q    Q
---E|E|---------------|----|E|---------------|-------|E|---------------|-------|
---E|E|---------------|----|E|---------------|-------|E|---------------|-------|
---E|E|---------------|----|E|---------------|-------|E|---------------|-------|
E|---------------|-------|E|---------------|-------|--8----8----8----8----|
--3----3----3----3----|--3----3----3----3----|--6----6----6----6----|
--1----1----1----1----|--1----1----1----1----|E|---------------|-------|

  Q    Q    Q    Q       Q    Q    Q    Q       Q    Q    Q    Q
---E|E|---------------|----|E|---------------|-------|E|---------------|-------|
---E|E|---------------|----|E|---------------|-------|E|---------------|-------|
---E|E|---------------|----|E|---------------|-------|E|---------------|-------|
--8----8----8----8----|--7----7----7----7----|--7E|---------------|----|
--6----6----6----6----|--5----5----5----5----|--5----3----3----3----|
E|---------------|-------|E|---------------|-------|-------1----1----1----|

  W                   W                   W
E|E|---------------|----|E|---------------|----|E|---------------|----|
B|E|---------------|----|E|---------------|----|E|---------------|----|
G|E|---------------|----|E|---------------|----|E|---------------|----|
D|--7E|---------------|-|--7E|---------------|-|--7E|---------------|-|
A|--5E|---------------|-|--5E|---------------|-|--5E|---------------|-|
E|E|---------------|----|E|---------------|----|E|---------------|----|

E|---3---| |--3--|  |--3--|  |--3--|
   E   E   E  E  E  E  E  E  E  E  E  E     W
E|E|---------------|E|---------------|-----------|E|---------------|----|
B|E|---------------|E|---------------|-----------|E|---------------|----|
G|E|---------------|E|---------------|-----------|E|---------------|----|
D|E|---------------|E|---------------|-----------|--7E|---------------|-|
A|--12--11--10--9--8--7--6--5--4--3--2--1--|--5E|---------------|-|
E|--12--11--10--9--8--7--6--5--4--3--2--1--|E|---------------|----|

  W                   W                   W
E|E|---------------|----|E|---------------|----|E|---------------|-----|
B|E|---------------|----|E|---------------|----|E|---------------|-----|
G|E|---------------|----|E|---------------|----|E|---------------|-----|
D|--7E|---------------|-|--7E|---------------|-|--7/E|---------------|-|
A|--5E|---------------|-|--5E|---------------|-|--5/E|---------------|-|
E|E|---------------|----|E|---------------|----|E|---------------|-----|

  E  E  E  E  E  E  E  E     E  E  E  E  E  E  E  E
E|E|---------------|-----------|E|---------------|-----------|
B|E|---------------|-----------|E|---------------|-----------|
G|E|---------------|-----------|E|---------------|-----------|
D|--8--8-----7-----8-----7--|--8--7-----7--7--8--7-----|
A|--6--6-----5-----6-----5--|--6--5-----5--5--6--5-----|
E|E|---------------|-----------|E|---------------|-----------|

  E  E  E  E  E  E  E  E     E  E  E  E  E  E  E  E
E|E|---------------|-----------|E|---------------|-----------|
B|E|---------------|-----------|E|---------------|-----------|
G|E|---------------|-----------|E|---------------|-----------|
D|--8--8-----7-----8-----7--|--8--7-----7--7--8--7-----|
A|--6--6-----5-----6-----5--|--6--5-----5--5--6--5-----|
E|E|---------------|-----------|E|---------------|-----------|

  E  E  E  E  E  E  E  E     E  E  E  E  E  E  E  E
E|E|---------------|-----------|E|---------------|-----------|
B|E|---------------|-----------|E|---------------|-----------|
G|E|---------------|-----------|E|---------------|-----------|
D|--8--8-----7-----8-----7--|--8--7-----7--7--8--7-----|
A|--6--6-----5-----6-----5--|--6--5-----5--5--6--5-----|
E|E|---------------|-----------|E|---------------|-----------|

  E  E  E  E  E  E  E  E     E  E  E  E  E  E  E  E
E|E|---------------|-----------|E|---------------|-----------|
B|E|---------------|-----------|E|---------------|-----------|
G|E|---------------|-----------|E|---------------|-----------|
D|--8--8-----7-----8-----7--|--8--7-----7--7--8--7-----|
A|--6--6-----5-----6-----5--|--6--5-----5--5--6--5-----|
E|E|---------------|-----------|E|---------------|-----------|

  E  E  E  E  E  E  E  E     E  E  E  E  E  E  E  E
E|E|---------------|-----------|E|---------------|-----------|
B|E|---------------|-----------|E|---------------|-----------|
G|E|---------------|-----------|E|---------------|-----------|
D|--8--8-----7-----8-----7--|--8--7-----7--7--8--7-----|
A|--6--6-----5-----6-----5--|--6--5-----5--5--6--5-----|
E|E|---------------|-----------|E|---------------|-----------|

  E  E  E  E  E  E  E  E     E  E  E  E  E  E  E  E
E|E|---------------|-----------|E|---------------|-----------|
B|E|---------------|-----------|E|---------------|-----------|
G|E|---------------|-----------|E|---------------|-----------|
D|--8--8-----7-----8-----7--|--8--7-----7--7--8--7-----|
A|--6--6-----5-----6-----5--|--6--5-----5--5--6--5-----|
E|E|---------------|-----------|E|---------------|-----------|

  E  E  E  E  E  E  E  E     E  E  E  E  E  E  E  E
E|E|---------------|-----------|E|---------------|-----------|
B|E|---------------|-----------|E|---------------|-----------|
G|E|---------------|-----------|E|---------------|-----------|
D|--8--8-----7-----8-----7--|--8--7-----7--7--8--7-----|
A|--6--6-----5-----6-----5--|--6--5-----5--5--6--5-----|
E|E|---------------|-----------|E|---------------|-----------|

  E  E  E  E  E  E  E  E     E  E  E  E  E  E  E  E
E|E|---------------|-----------|E|---------------|-----------|
B|E|---------------|-----------|E|---------------|-----------|
G|E|---------------|-----------|E|---------------|-----------|
D|--8--8-----7-----8-----7--|--8--7-----7--7--8--7-----|
A|--6--6-----5-----6-----5--|--6--5-----5--5--6--5-----|
E|E|---------------|-----------|E|---------------|-----------|

  E  E  E  E  E  E  E  E     E  E  E  E  E  E  E  E
E|E|---------------|-----------|E|---------------|-----------|
B|E|---------------|-----------|E|---------------|-----------|
G|E|---------------|-----------|E|---------------|-----------|
D|--8--8-----7-----8-----7--|--8--7-----7--7--8--7-----|
A|--6--6-----5-----6-----5--|--6--5-----5--5--6--5-----|
E|E|---------------|-----------|E|---------------|-----------|

  E  E  E  E  E  E  E  E     E  E  E  E  E  E  E  E
E|E|---------------|-----------|E|---------------|-----------|
B|E|---------------|-----------|E|---------------|-----------|
G|E|---------------|-----------|E|---------------|-----------|
D|--8--8-----7-----8-----7--|--8--7-----7--7--8--7-----|
A|--6--6-----5-----6-----5--|--6--5-----5--5--6--5-----|
E|E|---------------|-----------|E|---------------|-----------|

  Q    Q    Q    Q       Q    Q    Q    Q       Q    Q    Q    Q
---E|E|---------------|----|E|---------------|-------|E|---------------|-------|
---E|E|---------------|----|E|---------------|-------|E|---------------|-------|
---E|E|---------------|----|E|---------------|-------|E|---------------|-------|
---E|E|---------------|----|E|---------------|-------|E|---------------|-------|
--5----5----5----5----|--5----5----5----5----|--3----3----3----3----|
--3----3----3----3----|--3----3----3----3----|--1----1----1----1----|

  Q    Q    Q    Q       Q    Q    Q    Q       Q    Q    Q    Q
---E|E|---------------|----|E|---------------|-------|E|---------------|-------|
---E|E|---------------|----|E|---------------|-------|E|---------------|-------|
---E|E|---------------|----|E|---------------|-------|E|---------------|-------|
E|---------------|-------|--8----8----8----8----|--8----8----8----8----|
--3----3----3----3----|--6----6----6----6----|--6----6----6----6----|
--1----1----1----1----|E|---------------|-------|E|---------------|-------|

  Q    Q    Q    Q       Q    Q    Q    Q       Q    Q    Q    Q
---E|E|---------------|----|E|---------------|-------|E|---------------|-------|
---E|E|---------------|----|E|---------------|-------|E|---------------|-------|
---E|E|---------------|----|E|---------------|-------|E|---------------|-------|
--7----7----7----7----|--7E|---------------|----|E|---------------|-------|
--5----5----5----5----|--5----3----3----3----|--5----5----5----5----|
E|---------------|-------|-------1----1----1----|--3----3----3----3----|

  Q    Q    Q    Q       Q    Q    Q    Q       Q    Q    Q    Q
---E|E|---------------|----|E|---------------|-------|E|---------------|-------|
---E|E|---------------|----|E|---------------|-------|E|---------------|-------|
---E|E|---------------|----|E|---------------|-------|E|---------------|-------|
---E|E|---------------|----|E|---------------|-------|E|---------------|-------|
--5----5----5----5----|--3----3----3----3----|--3----3----3----3----|
--3----3----3----3----|--1----1----1----1----|--1----1----1----1----|

  Q    Q    Q    Q       Q    Q    Q    Q       Q    Q    Q    Q
---E|E|---------------|----|E|---------------|-------|E|---------------|-------|
---E|E|---------------|----|E|---------------|-------|E|---------------|-------|
---E|E|---------------|----|E|---------------|-------|E|---------------|-------|
--8----8----8----8----|--8----8----8----8----|--7----7----7----7----|
--6----6----6----6----|--6----6----6----6----|--5----5----5----5----|
---E|E|---------------|----|E|---------------|-------|E|---------------|-------|

  Q    Q    Q    Q       Q    Q    Q    Q       Q    Q    Q    Q
---E|E|---------------|----|E|---------------|-------|E|---------------|-------|
---E|E|---------------|----|E|---------------|-------|E|---------------|-------|
---E|E|---------------|----|E|---------------|-------|E|---------------|-------|
--7E|E|---------------|----|E|---------------|-------|E|---------------|-------|
--5----3----3----3----|--5----5----5----5----|--5----5----5----5----|
-------1----1----1----|--3----3----3----3----|--3----3----3----3----|

  Q    Q    Q    Q       Q    Q    Q    Q       Q    Q    Q    Q
---E|E|---------------|----|E|---------------|-------|E|---------------|-------|
---E|E|---------------|----|E|---------------|-------|E|---------------|-------|
---E|E|---------------|----|E|---------------|-------|E|---------------|-------|
E|---------------|-------|E|---------------|-------|--8----8----8----8----|
--3----3----3----3----|--3----3----3----3----|--6----6----6----6----|
--1----1----1----1----|--1----1----1----1----|E|---------------|-------|

  Q    Q    Q    Q       Q    Q    Q    Q       Q    Q    Q    Q
---E|E|---------------|----|E|---------------|-------|E|---------------|-------|
---E|E|---------------|----|E|---------------|-------|E|---------------|-------|
---E|E|---------------|----|E|---------------|-------|E|---------------|-------|
--8----8----8----8----|--7----7----7----7----|--7E|---------------|----|
--6----6----6----6----|--5----5----5----5----|--5----3----3----3----|
E|---------------|-------|E|---------------|-------|-------1----1----1----|

  Q    Q    Q    Q       Q    Q    Q    Q       Q    Q    Q    Q
---E|E|---------------|----|E|---------------|-------|E|---------------|-------|
---E|E|---------------|----|E|---------------|-------|E|---------------|-------|
---E|E|---------------|----|E|---------------|-------|E|---------------|-------|
---E|E|---------------|----|E|---------------|-------|E|---------------|-------|
--5----5----5----5----|--5----5----5----5----|--3----3----3----3----|
--3----3----3----3----|--3----3----3----3----|--1----1----1----1----|

  Q    Q    Q    Q       Q    Q    Q    Q       Q    Q    Q    Q
---E|E|---------------|----|E|---------------|-------|E|---------------|-------|
---E|E|---------------|----|E|---------------|-------|E|---------------|-------|
---E|E|---------------|----|E|---------------|-------|E|---------------|-------|
E|---------------|-------|--8----8----8----8----|--8----8----8----8----|
--3----3----3----3----|--6----6----6----6----|--6----6----6----6----|
--1----1----1----1----|E|---------------|-------|E|---------------|-------|

  Q    Q    Q    Q       Q    Q    Q    Q
E|E|---------------|-------|E|---------------|-------|
B|E|---------------|-------|E|---------------|-------|
G|E|---------------|-------|E|---------------|-------|
D|--7----7----7----7----|--7E|---------------|----|
A|--5----5----5----5----|--5----3----3----3----|
E|E|---------------|-------|-------1----1----1----|

  E  E  E  E  E  E  E  E     E  E  E  E  E  E  E  E
E|E|---------------|-----------|E|---------------|-----------|
B|E|---------------|-----------|E|---------------|-----------|
G|E|---------------|-----------|E|---------------|-----------|
D|--8--8-----7-----8-----7--|--8--7-----7--7--8--7-----|
A|--6--6-----5-----6-----5--|--6--5-----5--5--6--5-----|
E|E|---------------|-----------|E|---------------|-----------|

  E  E  E  E  E  E  E  E     E  E  E  E  E  E  E  E
E|E|---------------|-----------|E|---------------|-----------|
B|E|---------------|-----------|E|---------------|-----------|
G|E|---------------|-----------|E|---------------|-----------|
D|--8--8-----7-----8-----7--|--8--7-----7--7--8--7-----|
A|--6--6-----5-----6-----5--|--6--5-----5--5--6--5-----|
E|E|---------------|-----------|E|---------------|-----------|

  E  E  E  E  E  E  E  E     E  E  E  E  E  E  E  E
E|E|---------------|-----------|E|---------------|-----------|
B|E|---------------|-----------|E|---------------|-----------|
G|E|---------------|-----------|E|---------------|-----------|
D|--8--8-----7-----8-----7--|--8--7-----7--7--8--7-----|
A|--6--6-----5-----6-----5--|--6--5-----5--5--6--5-----|
E|E|---------------|-----------|E|---------------|-----------|

  E  E  E  E  E  E  E  E     E  E  E  E  E  E  E  E
E|E|---------------|-----------|E|---------------|-----------|
B|E|---------------|-----------|E|---------------|-----------|
G|E|---------------|-----------|E|---------------|-----------|
D|--8--8-----7-----8-----7--|--8--7-----7--7--8--7-----|
A|--6--6-----5-----6-----5--|--6--5-----5--5--6--5-----|
E|E|---------------|-----------|E|---------------|-----------|

  E  E  E  E  E  E  E  E     E  E  E  E  E  E  E  E
E|E|---------------|-----------|E|---------------|-----------|
B|E|---------------|-----------|E|---------------|-----------|
G|E|---------------|-----------|E|---------------|-----------|
D|--8--8-----7-----8-----7--|--8--7-----7--7--8--7-----|
A|--6--6-----5-----6-----5--|--6--5-----5--5--6--5-----|
E|E|---------------|-----------|E|---------------|-----------|

  E  E  E  E  E  E  E  E     E  E  E  E  E  E  E  E
E|E|---------------|-----------|E|---------------|-----------|
B|E|---------------|-----------|E|---------------|-----------|
G|E|---------------|-----------|E|---------------|-----------|
D|--8--8-----7-----8-----7--|--8--7-----7--7--8--7-----|
A|--6--6-----5-----6-----5--|--6--5-----5--5--6--5-----|
E|E|---------------|-----------|E|---------------|-----------|

  E  E  E  E  E  E  E  E     E  E  E  E  E  E  E  E
E|E|---------------|-----------|E|---------------|-----------|
B|E|---------------|-----------|E|---------------|-----------|
G|E|---------------|-----------|E|---------------|-----------|
D|--8--8-----7-----8-----7--|--8--7-----7--7--8--7-----|
A|--6--6-----5-----6-----5--|--6--5-----5--5--6--5-----|
E|E|---------------|-----------|E|---------------|-----------|

  E  E  E  E  E  E  E  E     E  E  E  E  E  E  E  E
E|E|---------------|-----------|E|---------------|-----------|-----|-----|
B|E|---------------|-----------|E|---------------|-----------|-----|-----|
G|E|---------------|-----------|E|---------------|-----------|-----|-----|
D|--8--8-----7-----8-----7--|--8--7-----7--7--8--7-----|-----|-----|
A|--6--6-----5-----6-----5--|--6--5-----5--5--6--5-----|-----|-----|
E|E|---------------|-----------|E|---------------|-----------|-----|-----|

E|-----|-----|-----|-----|-----|-----|-----|-----|-----|-----|-----|
B|-----|-----|-----|-----|-----|-----|-----|-----|-----|-----|-----|
G|-----|-----|-----|-----|-----|-----|-----|-----|-----|-----|-----|
D|-----|-----|-----|-----|-----|-----|-----|-----|-----|-----|-----|
A|-----|-----|-----|-----|-----|-----|-----|-----|-----|-----|-----|
E|-----|-----|-----|-----|-----|-----|-----|-----|-----|-----|-----|

E|-----|-----|-----|-----|-----|-----|-----|-----|-----|-----|-----|
B|-----|-----|-----|-----|-----|-----|-----|-----|-----|-----|-----|
G|-----|-----|-----|-----|-----|-----|-----|-----|-----|-----|-----|
D|-----|-----|-----|-----|-----|-----|-----|-----|-----|-----|-----|
A|-----|-----|-----|-----|-----|-----|-----|-----|-----|-----|-----|
E|-----|-----|-----|-----|-----|-----|-----|-----|-----|-----|-----|

E|-----|-----|-----|-----|-----|-----|-----|-----| |
B|-----|-----|-----|-----|-----|-----|-----|-----| |
G|-----|-----|-----|-----|-----|-----|-----|-----| |
D|-----|-----|-----|-----|-----|-----|-----|-----| |
A|-----|-----|-----|-----|-----|-----|-----|-----| |
E|-----|-----|-----|-----|-----|-----|-----|-----| |

Duration Legend
E|---------------|
W - whole
H - half
Q - quarter
E - 8th
S - 16th
T - 32nd
X - 64th
. - note dotted
|-n-|  - n-tuplets


Tablature Legend
E|---------------|-
L - tied note
x - dead note
g - grace note
(n) - ghost note
> - accentuded note
NH - natural harmonic
AH - artificial harmonic
TH - tapped harmonic
SH - semi harmonic
PH - pitch harmonic
h - hammer on
p - pull off
b - bend
br - bendRelease
pb - preBend
pbr - preBendRelease
brb - bendReleaseBend
n/ - tremolo bar dip
n - tremolo bar dive
-/n - tremolo bar Release up
/n - tremolo bar inverted dip
/n - tremolo bar return
-n - tremolo bar Release down
S - shift slide
s - legato slide
/ -  slide into from below or out of upwards
 -  slide into from above or out of downwards
~ - vibrato
W - wide vibrato
tr - trill
TP - tremolo picking
T - tapping
S - slap
P - pop
< - fade in
^ - brush up
v - brush down
00:00 / 00:00
Outros vídeos desta música
Repetir
Outros vídeos desta música
Compositor não encontrado.
    • ½ Tom
    • A
    • Bb
    • B
    • C
    • Db
    • D
    • Eb
    • E
    • F
    • F#
    • G
    • Ab
  • Adicionar à lista

    0 comentários

    Ver todos os comentários

    Conseguiu tocar?

    0 Tocaram 0 Ainda não

    Grave um vídeo tocando Grande e nos envie!

    Entre para oCifra Club PRO

    Tenha acesso a benefícios exclusivos no App e no Site

    • Chega de anúncios

    • Prioridade de compra em lançamentos

    • Mais recursos no app do Afinador

    • Atendimento Prioritário

    • Descontos nos produtos Cifra Club

    • Ajude a produzir mais conteúdo

    00:00 / 00:00

    Cifra Club Pro

    Aproveite o Cifra Club com benefícios exclusivos e sem anúncios
    Cifra Club Pro
    Aproveite o Cifra Club com benefícios exclusivos e sem anúncios
    OK