Cifra Club

Odio

Stravaganzza

Cifra: Principal (violão e guitarra)
tom: Ebm
E|----7--7---22--21--15--14---13---15--14--9--13--4--10--6--|
B|----------------------------------------------------------|
G|----------------------------------------------------------|
D|----------------------------------------------------------|
A|----------------------------------------------------------|
E|----------------------------------------------------------|

E|----7--7---22--21--15--14---13---15--14--9--13--4--10--6--|
B|----------------------------------------------------------|
G|----------------------------------------------------------|
D|----------------------------------------------------------|
A|----------------------------------------------------------|
E|----------------------------------------------------------|

E|----------------------------------------------------------|
B|----------------------------------------------------------|
G|----------------------------------------------------------|
D|--3--------3--------3-----3-----3--4--3-----3-------------|
A|--1--1--1--1--1--1--1--1--1--1--1--2--1--1--1-------------|
E|-----0--0-----0--0-----0-----0-----------0----------------|

E|----------------------------------------------------------|
B|----------------------------------------------------------|
G|----------------------------------------------------------|
D|--3--------3--------3-----3-----3--4--3-----3-------------|
A|--1--1--1--1--1--1--1--1--1--1--1--2--1--1--1-------------|
E|-----0--0-----0--0-----0-----0-----------0----------------|

E|----------------------------------------------------------|
B|----------------------------------------------------------|
G|----------------------------------------------------------|
D|--3--------3--------3-----3-----3--4--3-----3-------------|
A|--1--1--1--1--1--1--1--1--1--1--1--2--1--1--1-------------|
E|-----0--0-----0--0-----0-----0-----------0----------------|

E|----------------------------------------------------------|
B|----------------------------------------------------------|
G|----------------------------------------------------------|
D|--3--------3--------3--------3---3-3--3-3-3---------------|
A|--1--1--1--1--1--1--1--1-----1---1-1--1-1-1---------------|
E|-----0--0-----0--0-----0----------------------------------|

E|----------------------------------------------------------|
B|----------------------------------------------------------|
G|----------------------------------------------------------|
D|--3--------3--------3-----3-----3--4--3-----3-------------|
A|--1--1--1--1--1--1--1--1--1--1--1--2--1--1--1-------------|
E|-----0--0-----0--0-----0-----0-----------0----------------|

E|----------------------------------------------------------|
B|----------------------------------------------------------|
G|----------------------------------------------------------|
D|--3--------3--------3-----3-----3--4--3-----3-------------|
A|--1--1--1--1--1--1--1--1--1--1--1--2--1--1--1-------------|
E|-----0--0-----0--0-----0-----0-----------0----------------|

E|----------------------------------------------------------|
B|----------------------------------------------------------|
G|----------------------------------------------------------|
D|--3--------3--------3-----3-----3--4--3-----3-------------|
A|--1--1--1--1--1--1--1--1--1--1--1--2--1--1--1-------------|
E|-----0--0-----0--0-----0-----0-----------0----------------|

E|----------------------------------------------------------|
B|----------------------------------------------------------|
G|----------------------------------------------------------|
D|--3--------3--------3--------3---3-3--3-3-3---------------|
A|--1--1--1--1--1--1--1--1-----1---1-1--1-1-1---------------|
E|-----0--0-----0--0-----0----------------------------------|

E|--17--12--10--13--12--10--8--11--12--17--19--20--6--5-----|
B|----------------------------------------------------------|
G|----------------------------------------------------------|
D|----------------------------------------------------------|
A|----------------------------------------------------------|
E|----------------------------------------------------------|

E|--17--12--10--13--12--10--8--11--12--17--19--20--6--5-----|
B|----------------------------------------------------------|
G|----------------------------------------------------------|
D|----------------------------------------------------------|
A|----------------------------------------------------------|
E|----------------------------------------------------------|

E|----------------------------------------------------------|
B|----------------------------------------------------------|
G|----------------------4-4---------------------------------|
D|--6-6-6-6----6-6-6-6--2-2--5-5---6-6-6-6------------------|
A|--4-4-4-4----4-4-4-4-------3-3---4-4-4-4------------------|
E|----------------------------------------------------------|

E|----------------------------------------------------------|
B|----------------------------------------------------------|
G|----------------------4-4---------------------------------|
D|--6-6-6-6----6-6-6-6--2-2--5-5---6-6-6-6------------------|
A|--4-4-4-4----4-4-4-4-------3-3---4-4-4-4------------------|
E|----------------------------------------------------------|

E|----------------------------------------------------------|
B|----------------------------------------------------------|
G|----------------------4-4---------------------------------|
D|--6-6-6-6----6-6-6-6--2-2--5-5---6-6-6-6------------------|
A|--4-4-4-4----4-4-4-4-------3-3---4-4-4-4------------------|
E|----------------------------------------------------------|

E|----------------------------------------------------------|
B|----------------------------------------------------------|
G|----------------------4-4---------------------------------|
D|--6-6-6-6----6-6-6-6--2-2--5-5---6-6-6-6------------------|
A|--4-4-4-4----4-4-4-4-------3-3---4-4-4-4------------------|
E|----------------------------------------------------------|

E|----------------------------------------------------------|
B|----------------------------------------------------------|
G|----------------------------------------------------------|
D|--3--------3--------3-----3-----3--4--3-----3-------------|
A|--1--1--1--1--1--1--1--1--1--1--1--2--1--1--1-------------|
E|-----0--0-----0--0-----0-----0-----------0----------------|

E|----------------------------------------------------------|
B|----------------------------------------------------------|
G|----------------------------------------------------------|
D|--3--------3--------3-----3-----3--4--3-----3-------------|
A|--1--1--1--1--1--1--1--1--1--1--1--2--1--1--1-------------|
E|-----0--0-----0--0-----0-----0-----------0----------------|

E|----------------------------------------------------------|
B|----------------------------------------------------------|
G|----------------------------------------------------------|
D|--3--------3--------3-----3-----3--4--3-----3-------------|
A|--1--1--1--1--1--1--1--1--1--1--1--2--1--1--1-------------|
E|-----0--0-----0--0-----0-----0-----------0----------------|

E|----------------------------------------------------------|
B|----------------------------------------------------------|
G|----------------------------------------------------------|
D|--3--------3--------3--------3---3-3--3-3-3---------------|
A|--1--1--1--1--1--1--1--1-----1---1-1--1-1-1---------------|
E|-----0--0-----0--0-----0----------------------------------|

E|----------------------------------------------------------|
B|----------------------------------------------------------|
G|----------------------------------------------------------|
D|--3--------3--------3-----3-----3--4--3-----3-------------|
A|--1--1--1--1--1--1--1--1--1--1--1--2--1--1--1-------------|
E|-----0--0-----0--0-----0-----0-----------0----------------|

E|----------------------------------------------------------|
B|----------------------------------------------------------|
G|----------------------------------------------------------|
D|--3--------3--------3-----3-----3--4--3-----3-------------|
A|--1--1--1--1--1--1--1--1--1--1--1--2--1--1--1-------------|
E|-----0--0-----0--0-----0-----0-----------0----------------|

E|----------------------------------------------------------|
B|----------------------------------------------------------|
G|----------------------------------------------------------|
D|--3--------3--------3-----3-----3--4--3-----3-------------|
A|--1--1--1--1--1--1--1--1--1--1--1--2--1--1--1-------------|
E|-----0--0-----0--0-----0-----0-----------0----------------|

E|----------------------------------------------------------|
B|----------------------------------------------------------|
G|----------------------------------------------------------|
D|--3--------3--------3-----3-----3--4--3-----3-------------|
A|--1--1--1--1--1--1--1--1--1--1--1--2--1--1--1-------------|
E|-----0--0-----0--0-----0-----0-----------0----------------|

E|----------------------------------------------------------|
B|----------------------------------------------------------|
G|----------------------------------------------------------|
D|--3--------3--------3--------3---3-3--3-3-3---------------|
A|--1--1--1--1--1--1--1--1-----1---1-1--1-1-1---------------|
E|-----0--0-----0--0-----0----------------------------------|

E|----------------------------------------------------------|
B|----------------------------------------------------------|
G|----------------------------------------------------------|
D|--3--------3--------3-----3-----3--4--3-----3-------------|
A|--1--1--1--1--1--1--1--1--1--1--1--2--1--1--1-------------|
E|-----0--0-----0--0-----0-----0-----------0----------------|

E|--17--12--10--13--12--10--8--11--12--17--19--20--6--5-----|
B|----------------------------------------------------------|
G|----------------------------------------------------------|
D|----------------------------------------------------------|
A|----------------------------------------------------------|
E|----------------------------------------------------------|

E|--17--12--10--13--12--10--8--11--12--17--19--20--6--5-----|
B|----------------------------------------------------------|
G|----------------------------------------------------------|
D|----------------------------------------------------------|
A|----------------------------------------------------------|
E|----------------------------------------------------------|

E|----------------------------------------------------------|
B|----------------------------------------------------------|
G|----------------------4-4---------------------------------|
D|--6-6-6-6----6-6-6-6--2-2--5-5---6-6-6-6------------------|
A|--4-4-4-4----4-4-4-4-------3-3---4-4-4-4------------------|
E|----------------------------------------------------------|

E|----------------------------------------------------------|
B|----------------------------------------------------------|
G|----------------------4-4---------------------------------|
D|--6-6-6-6----6-6-6-6--2-2--5-5---6-6-6-6------------------|
A|--4-4-4-4----4-4-4-4-------3-3---4-4-4-4------------------|
E|----------------------------------------------------------|

E|----------------------------------------------------------|
B|----------------------------------------------------------|
G|----------------------4-4---------------------------------|
D|--6-6-6-6----6-6-6-6--2-2--5-5---6-6-6-6------------------|
A|--4-4-4-4----4-4-4-4-------3-3---4-4-4-4------------------|
E|----------------------------------------------------------|

E|----------------------------------------------------------|
B|----------------------------------------------------------|
G|----------------------4-4---------------------------------|
D|--6-6-6-6----6-6-6-6--2-2--5-5---6-6-6-6------------------|
A|--4-4-4-4----4-4-4-4-------3-3---4-4-4-4------------------|
E|----------------------------------------------------------|

E|----------------------------------------------------------|
B|----------------------------------------------------------|
G|----------------------------------------------------------|
D|--3--------3--------3-----3-----3--4--3-----3-------------|
A|--1--1--1--1--1--1--1--1--1--1--1--2--1--1--1-------------|
E|-----0--0-----0--0-----0-----0-----------0----------------|

E|----------------------------------------------------------|
B|----------------------------------------------------------|
G|----------------------------------------------------------|
D|--3--------3--------3-----3-----3--4--3-----3-------------|
A|--1--1--1--1--1--1--1--1--1--1--1--2--1--1--1-------------|
E|-----0--0-----0--0-----0-----0-----------0----------------|

E|----------------------------------------------------------|
B|----------------------------------------------------------|
G|----------------------------------------------------------|
D|--3--------3--------3-----3-----3--4--3-----3-------------|
A|--1--1--1--1--1--1--1--1--1--1--1--2--1--1--1-------------|
E|-----0--0-----0--0-----0-----0-----------0----------------|

E|----------------------------------------------------------|
B|----------------------------------------------------------|
G|----------------------------------------------------------|
D|--3--------3--------3--------3---3-3--3-3-3---------------|
A|--1--1--1--1--1--1--1--1-----1---1-1--1-1-1---------------|
E|-----0--0-----0--0-----0----------------------------------|

E|----------------------------------------------------------|
B|----------------------------------------------------------|
G|----------------------------------------------------------|
D|--3--------3--------3-----3-----3--4--3-----3-------------|
A|--1--1--1--1--1--1--1--1--1--1--1--2--1--1--1-------------|
E|-----0--0-----0--0-----0-----0-----------0----------------|

E|----------------------------------------------------------|
B|----------------------------------------------------------|
G|----------------------------------------------------------|
D|--3--------3--------3-----3-----3--4--3-----3-------------|
A|--1--1--1--1--1--1--1--1--1--1--1--2--1--1--1-------------|
E|-----0--0-----0--0-----0-----0-----------0----------------|

E|----------------------------------------------------------|
B|----------------------------------------------------------|
G|----------------------------------------------------------|
D|--3--------3--------3-----3-----3--4--3-----3-------------|
A|--1--1--1--1--1--1--1--1--1--1--1--2--1--1--1-------------|
E|-----0--0-----0--0-----0-----0-----------0----------------|

E|----------------------------------------------------------|
B|----------------------------------------------------------|
G|----------------------------------------------------------|
D|--3--------3--------3-----3-----3--4--3-----3-------------|
A|--1--1--1--1--1--1--1--1--1--1--1--2--1--1--1-------------|
E|-----0--0-----0--0-----0-----0-----------0----------------|

E|----------------------------------------------------------|
B|----------------------------------------------------------|
G|----------------------------------------------------------|
D|--3--------3--------3--------3---3-3--3-3-3---------------|
A|--1--1--1--1--1--1--1--1-----1---1-1--1-1-1---------------|
E|-----0--0-----0--0-----0----------------------------------|
E|----------------------------------------------------------|
B|----------------------------------------------------------|
G|----------------------------------------------------------|
D|--3--------3--------3-----3-----3--4--3-----3-------------|
A|--1--1--1--1--1--1--1--1--1--1--1--2--1--1--1-------------|
E|-----0--0-----0--0-----0-----0-----------0----------------|

E|----------------------------------------------------------|
B|----------------------------------------------------------|
G|----------------------------------------------------------|
D|--3--------3--------3-----3-----3--4--3-----3-------------|
A|--1--1--1--1--1--1--1--1--1--1--1--2--1--1--1-------------|
E|-----0--0-----0--0-----0-----0-----------0----------------|

E|----------------------------------------------------------|
B|----------------------------------------------------------|
G|----------------------------------------------------------|
D|--3--------3--------3-----3-----3--4--3-----3-------------|
A|--1--1--1--1--1--1--1--1--1--1--1--2--1--1--1-------------|
E|-----0--0-----0--0-----0-----0-----------0----------------|

E|----------------------------------------------------------|
B|----------------------------------------------------------|
G|----------------------------------------------------------|
D|--3--------3--------3--------3---3-3--3-3-3---------------|
A|--1--1--1--1--1--1--1--1-----1---1-1--1-1-1---------------|
E|-----0--0-----0--0-----0----------------------------------|

E|----------------------------------------------------------|
B|----------------------------------------------------------|
G|----------------------------------------------------------|
D|--3--------3--------3-----3-----3--4--3-----3-------------|
A|--1--1--1--1--1--1--1--1--1--1--1--2--1--1--1-------------|
E|-----0--0-----0--0-----0-----0-----------0----------------|

E|----------------------------------------------------------|
B|----------------------------------------------------------|
G|----------------------------------------------------------|
D|--3--------3--------3-----3-----3--4--3-----3-------------|
A|--1--1--1--1--1--1--1--1--1--1--1--2--1--1--1-------------|
E|-----0--0-----0--0-----0-----0-----------0----------------|

E|----------------------------------------------------------|
B|----------------------------------------------------------|
G|----------------------------------------------------------|
D|--3--------3--------3-----3-----3--4--3-----3-------------|
A|--1--1--1--1--1--1--1--1--1--1--1--2--1--1--1-------------|
E|-----0--0-----0--0-----0-----0-----------0----------------|

E|----------------------------------------------------------|
B|----------------------------------------------------------|
G|----------------------------------------------------------|
D|--3--------3--------3-----3-----3--4--3-----3-------------|
A|--1--1--1--1--1--1--1--1--1--1--1--2--1--1--1-------------|
E|-----0--0-----0--0-----0-----0-----------0----------------|

E|----------------------------------------------------------|
B|----------------------------------------------------------|
G|----------------------------------------------------------|
D|--3--------3--------3--------3---3-3--3-3-3---------------|
A|--1--1--1--1--1--1--1--1-----1---1-1--1-1-1---------------|
E|-----0--0-----0--0-----0----------------------------------|

es mi  primera tablatura
espero que sea de su agrado en breve subire el resto
de la cancion
dudas sugerencias o comentarios mi msn
es
saludos
00:00 / 00:00
Outros vídeos desta música
Repetir
Outros vídeos desta música
Composição de Stravaganzza
    • ½ Tom
    • Am
    • Bbm
    • Bm
    • Cm
    • C#m
    • Dm
    • Ebm
    • Em
    • Fm
    • F#m
    • Gm
    • G#m
  • Adicionar à lista

    0 comentários

    Ver todos os comentários

    Conseguiu tocar?

    0 Tocaram 0 Ainda não

    Grave um vídeo tocando Odio e nos envie!

    Entre para oCifra Club PRO

    Tenha acesso a benefícios exclusivos no App e no Site

    • Chega de anúncios

    • Prioridade de compra em lançamentos

    • Mais recursos no app do Afinador

    • Atendimento Prioritário

    • Descontos nos produtos Cifra Club

    • Ajude a produzir mais conteúdo

    00:00 / 00:00

    Cifra Club Pro

    Aproveite o Cifra Club com benefícios exclusivos e sem anúncios
    Cifra Club Pro
    Aproveite o Cifra Club com benefícios exclusivos e sem anúncios
    OK