Cifra Club

Stray Cat Strut

Stray Cats

Cifra: Principal (violão e guitarra)
tom: A
[Intro]

E|-7/8~--------------------------------------|
B|-7/8~--8-----------------------8-----------|
G|---------10brp8-10-8---------8------10---8\|
D|---------------------------9-----11----7---|
A|------------------------10-----------------|
E|-------------------------------------------|

 then another measure of just bass

 then
 

E|-----------------------------------|
B|-----------------------------------|
G|-----------------------------------|
D|--10\--------8\--------6\--------5\|
A|-----------------------------------|
E|---8\--------6\--------4\--------3\|

 "ooohh......."

     Cm        Bb        Ab        GE
E|---8---------6---------4---------3|
B|---8---------6---------4---------3|
G|---8---------7---------5---------4|
D|--10---------8---------6---------5|
A|--10---------8---------6---------5|
E|---8---------6---------4---------3|
                                        
 "black and orange stray cat...."                                         
E|---8--8--6--6--4--4--3--3-3|
B|---8--8--6--6--4--4--3--3-3|
G|---8--8--7--7--5--5--4--4-4|
D|--10-10--8--8--6--6--5--5-5|
A|--10-10--8--8--6--6--5--5-5|
E|---8--8--6--6--4--4--3--3-3|

     Cm        Bb        Ab        G
E|---8---------6---------4---------3|
B|---8---------6---------4---------3|
G|---8---------7---------5---------4|
D|--10---------8---------6---------5|
A|--10---------8---------6---------5|
E|---8---------6---------4---------3|

 "ain't got enuf..."

E|---8--8--6--6--4--4--3--3-3|
B|---8--8--6--6--4--4--3--3-3|
G|---8--8--7--7--5--5--4--4-4|
D|--10-10--8--8--6--6--5--5-5|
A|--10-10--8--8--6--6--5--5-5|
E|---8--8--6--6--4--4--3--3-3|

     Cm        Bb        Ab        G
E|---8---------6---------4---------3|
B|---8---------6---------4---------3|
G|---8---------7---------5---------4|
D|--10---------8---------6---------5|
A|--10---------8---------6---------5|
E|---8---------6---------4---------3|



 "I'm flat broke..."   

-|---8--8--6--6--4--4--3--3-3--8\-|
-|---8--8--6--6--4--4--3--3-3--8\-|
-|---8--8--7--7--5--5--4--4-4--8\-|
-|--10-10--8--8--6--6--5--5-5-10\-|
-|--10-10--8--8--6--6--5--5-5-10\-|
-|---8--8--6--6--4--4--3--3-3--8\-|



 "stray cat strut..." 

    Fm    Em    Db    C

-|--8--8--6--6--4--4--3--3-3|
-|--8--8--6--6--4--4--3--3-3|
-|-10-10--8--8--6--6--5--5-5|
-|-10-10--8--8--6--6--5--5-5|play twice
-|--8--8--6--6--4--4--3--3-3|
-|--8--8--6--6--4--4--3--3-3|


 "get shoes thrown at me..."  

-|--8--8--6--6--4--4--3--3-3--8\-|
-|--8--8--6--6--4--4--3--3-3--8\-|
-|-10-10--8--8--6--6--5--5-5-10\-|
-|-10-10--8--8--6--6--5--5-5-10\-|
-|--8--8--6--6--4--4--3--3-3--8\-|
-|--8--8--6--6--4--4--3--3-3--8\-|



      Cm        Bb        Ab        G
-|---8--8------6--6------4--4------3--3|
-|---8--8------6--6------4--4------3--3|
-|---8--8------7--7------5--5------4--4|
-|--10-10------8--8------6--6------5--5|play twice
-|--10-10------8--8------6--6------5--5|
-|---8--8------6--6------4--4------3--3|



-|------8--------------------------------|
-|------8--------------------------------|
-|-10~-----10b-8-------------------------|
-|---------------10--8--6--8--6h8-5h6p5tr|
-|---------------------------------------|
-|---------------------------------------|


-|-------------------------------------2-1-|
-|-------------------------------1--4------|
-|---------------0-----------0h1-----------|
-|------0--1--3-----1--0-------------------|
-|-2/3--------------------3----------------|
-|-----------------------------------------|


-|--8---8--6--6--4--4--3|
-|--9---9--7--7--5--5--4|
-|--9---9--7--7--5--5--4|
-|-10--10--8--8--6--6--5|
-|----------------------|
-|----------------------|


-|--------------------------8-------------------|
-|----------------------------------------------|
-|-----------------8--11b-----8b----------8---10|
-|----------7---10--------------10----10---10---|
-|---6---9--------------------------------------|
-|-8--------------------------------------------|


 "I don't bother chasing..."   

-|-8--8--10--8--8--8--8--8|
-|-9--9---9--9--9--9--9--9|
-|10-10--10-10-10-10-10-10|
-|------------------------|
-|------------------------|
-|------------------------|


-|-8--10--8--8-8--8\7-8\7-8|
-|-8---8--8--8-8--8\7-8\7-8|
-|-8---8--8--8-8--8\7-8\7-8|
-|-------------------------|
-|-------------------------|
-|-------------------------|


 "I slink down the alley..."

-|-8--8--10--8--8--8--8--8|
-|-9--9---9--9--9--9--9--9|
-|10-10--10-10-10-10-10-10|
-|------------------------|
-|------------------------|
-|------------------------|


 'howling to the moon..."   

-|-10-10-10-10--11-11-11-11|
-|-10-10-10-10--11-11-11-11|
-|-11-11-11-11--12-12-12-12|
-|-------------------------|
-|-------------------------|
-|-------------------------|


 "singing the blues..."

     Cm        Bb        Ab        G
-|---8---------6---------4---------3|
-|---8---------6---------4---------3|
-|---8---------7---------5---------4|
-|--10---------8---------6---------5|
-|--10---------8---------6---------5|
-|---8---------6---------4---------3|


 "wild stray cat-you're a real..."

     Cm        Bb        Ab        G
-|---8---------6---------4---------3|
-|---8---------6---------4---------3|
-|---8---------7---------5---------4|
-|--10---------8---------6---------5|
-|--10---------8---------6---------5|
-|---8---------6---------4---------3|




 "I wish I could be as carefree..."
 
      Cm        Bb        Ab        G
-|---8--8------6--6------4--4------3--3---8\--|
-|---8--8------6--6------4--4------3--3---8\--|
-|---8--8------7--7------5--5------4--4---8\--|
-|--10-10------8--8------6--6------5--5--10\--|
-|--10-10------8--8------6--6------5--5--10\--|
-|---8--8------6--6------4--4------3--3---8\--|



-|---8--8--6--6--4--4--3--3-|
-|---8--8--6--6--4--4--3--3-|
-|---8--8--7--7--5--5--4--4-|
-|--10-10--8--8--6--6--5--5-|
-|--10-10--8--8--6--6--5--5-|
-|---8--8--6--6--4--4--3--3-|



-|---8--8--6--6--4--4--3--3-|
-|---8--8--6--6--4--4--3--3-|
-|---8--8--7--7--5--5--4--4-|
-|--10-10--8--8--6--6--5--5-|
-|--10-10--8--8--6--6--5--5-|
-|---8--8--6--6--4--4--3--3-|

-|--------------8--------|
-|-8----9--8----8----9--8|     
-|-8----8--8----8----8--8|
00:00 / 00:00
Outros vídeos desta música
Repetir
Outros vídeos desta música
Composição de Brian Setzer
Colaboração e revisão:
  • Vinicius Losekann
  • Rodolfo Santos
25.477 exibições
  • Simplificar cifra
    • ½ Tom
    • A
    • Bb
    • B
    • C
    • Db
    • D
    • Eb
    • E
    • F
    • F#
    • G
    • Ab
  • Adicionar à lista

    0 comentários

    Ver todos os comentários

    Conseguiu tocar?

    2 Tocaram 0 Ainda não

    Grave um vídeo tocando Stray Cat Strut e nos envie!

    Entre para oCifra Club PRO

    Tenha acesso a benefícios exclusivos no App e no Site

    • Chega de anúncios

    • Prioridade de compra em lançamentos

    • Mais recursos no app do Afinador

    • Atendimento Prioritário

    • Descontos nos produtos Cifra Club

    • Ajude a produzir mais conteúdo

    00:00 / 00:00

    Cifra Club Pro

    Aproveite o Cifra Club com benefícios exclusivos e sem anúncios
    Cifra Club Pro
    Aproveite o Cifra Club com benefícios exclusivos e sem anúncios
    OK