Enviar cifraEntrar

A Tendência

Strike

Cifra: Principal
exibições 208.175
Tom: A#

  Intro:( Bb  F  Eb  F )
E|----------------------------------------------|
B|-6--(11x)---------4--(11x)--------------------|
G|----------------------------------------------|
D|----------------------------------------------|
A|----------------------------------------------|
E|----------------------------------------------|


E|------------13---------------10h11p10---------|
B|----11-----------11--------------------11-----|
G|-10----10-----10----10--------------------10--|
D|----------------------------------------------|
A|----------------------------------------------|
E|----------------------------------------------|


E|------------13-----------11-11-11-11-11-11-11-|
B|----11------------13-----11-11-11-11-11-11-11-|
G|-10----10------10-----------------------------|
D|----------------------------------------------|
A|----------------------------------------------|
E|----------------------------------------------|


E|------------13---------------10h11p10---------|
B|----11-----------11--------------------11-----|
G|-10----10-----10----10--------------------10--|
D|----------------------------------------------|
A|----------------------------------------------|
E|----------------------------------------------|


E|-------------10-------------------------------|
B|----11----13----11----------------------------|
G|-10----10-------------------------------------|
D|----------------------------------------------|
A|----------------------------------------------|
E|----------------------------------------------|


  Bb
Se já não sei quem eu sou
  Eb                    F
E vivo sempre a esperar  a tendência  a tendência
 Bb
Mudei o look e aumentou
 Eb                     F
Minha audiência sem eu precisar de essência  de essência
 Bb                          Eb                  F
Posso ser triste   emotivo  alegre ou deprimido  eu mudo até você me aceitar
 Bb                          Eb
Posso ser um nerd assumido ou um fashion colorido
 F
O que importa é alguém comprar

             Gm          F
Se quer saber  cansei  o mundo me ignora
 Eb                F
E elas não ligam pra mim
  Gm          F                Eb                       F
Voltei  sou rockstar agora  vazio por dentro mais por fora perfeitin

Refrão:
        Bb                 Eb                   Cm
Se eu bombar  meu site na internet você vai me amar
                Eb                  Gm          F
Vou tocar no seu rádio até você cansar  e na tv vou estar
Eb             F
Serei teu vício
               Bb
E eu ja choro até
                Eb               Cm
E se não tivér letra é só cantar yeah yeah
          Eb                  Gm
Se falta conteúdo vai sobrar mulher
            F
Sou inútil mais não sou qualquer
  Eb            F
Você vai querer estar comigo

( Bb  F  Eb  F )

  Bb                         Eb
Eu hoje aperto a calça pro volume ser maior
  F
Se esquento a franja pra alto estima é melhor
  Bb                 Eb                F
De nike e gola v pra causar no shopping e conquistar você

             Gm          F
Se quer saber  cansei  o mundo me ignora
 Eb                F
E elas não ligam pra mim
 Gm        F                Eb                       F
Voltei  sou rockstar agora  vazio por dentro mais por fora perfeitin

Refrão:
        Bb                 Eb                   Cm
Se eu bombar  meu site na internet você vai me amar
                Eb                  Gm         F
Vou tocar no seu rádio até você cansar  e na tv vou estar
Eb             F
Serei teu vício
               Bb
E eu ja choro até
                Eb               Cm
E se não tivér letra é só cantar yeah yeah
          Eb                  Gm
Se falta conteúdo vai sobrar mulher
            F
Sou inútil mais não sou qualquer
  Eb            F
Você vai querer estar comigo

 Bb                    F
Mas eu não tenho nada a acrescentar
 Eb                    F
Só interesseira que tenta aproximar
 Bb                  F            Eb
Na capa da revista teen pra você olhar
( F# )
Wo wo baby !

( A#5  D#5  C5  D#5  G5  F5  D#5  F5 )
Solo:


 ( Bb  F  Eb  F )
E|--------------------------------------------------------------------|
B|--------------------------------------------------------------------|
G|-3-3-3-5-5-5-7-7--3-3-3-5-5-5-7-7--3-3-3-5-5-5-7-7--8-8-8-8-8--7-5--|
D|--------------------------------------------------------------------|
A|-1-1-1-3-3-3-5-5--1-1-1-3-3-3-5-5--1-1-1-3-3-3-5-5--6-6-6-6-6--5-3--|
E|--------------------------------------------------------------------|


E|-10h11p10--------------------------|--------------------------------------|
B|----------11-----------------------|------------------------------------11|
G|-------------10—8/7-8/10~----------|-------------------7-7-7-8-8-8—-7h8---|
D|--------------------------8/10/8~--|---8-8-8--10-10-10--------------------|
A|-----------------------------------|--------------------------------------|
E|-----------------------------------|--------------------------------------|



Refrão:
          Bb                     Eb              Cm
Se eu bombar  meu site na internet você vai me amar
                   Eb               Gm        F
Vou tocar no seu rádio até você cansar  e na tv vou estar
  Eb             F
Serei teu vício
               Bb
E eu ja choro até
                Eb                     Cm
E se não tivér letra é só cantar yeah yeah
               Eb                 Gm
Se falta conteúdo vai sobrar mulher
                    F
Sou inútil mais não sou qualquer
      Eb            F
Você vai querer estar comigo
  • 1
  • 2
  • 3
  • 4
  • 5
  • 6
  • 7
  • 8
  • 9
  • 10
  • 11
  • 12

    0 comentários

      mostrar mais comentários

      Conseguiu tocar?

      42tocaram1ainda não

      Grave um vídeo tocando A Tendência e mande pra gente!

      00:00 / 00:00
      outros vídeos desta música
      repetirqualidadeautomática
      • automática
      Outro vídeos desta música
        00:00 / 00:00
        automática
        • automática
        Acordes para:violão e guitarra
        dificuldadeexibiçõescontribuições
        1 versão de Tab de baixoexibiçõescontribuições
        3 versões de Guitar Proformatodownloadscontribuição
        fecharplay/pause subir/descer velocidade
          acordes
          fechar
          OK
          Feedback