Cifra Club

Aprenda

Aquela História

Strike

Cifra: Versão 4 (violão e guitarra)
tom: C
INTRO: C       C
e||------------------------------------------------------||
B||------------------------------------------------------||
G||--6-6--6-6-6-6-5-6-6--6-6-6-6-5-6-6--6-6-6-6-5-6-6-6-6||
D||--X-X--X-X-X-X-X-X-X--X-X-X-X-X-X-X--X-X-X-X-X-X-x-x-x||
A||--4-4--4-4-4-4-3-4-4--4-4-4-4-3-4-4--4-4-4-4-3-4-4-4-4||
E||------------------------------------------------------||
 
     C               B        F          G   C               B        F           G
e||---------------------------------------------------------------------------------------------------|
B||---------------------------------------------------------------------------------------------------|
G||-14-14-14-14-14-14-09-11-07--14-14-14-12-11-09--14-14-14-12-12-11-09-11-07--12-12-12-11-09-14/16/14|
D||-XX-XX-XX-XX-XX-XX-XX-XX-XX--XX-XX-XX-XX-XX-XX--XX-XX-XX-XX-XX-XX-XX-XX-XX--XX-XX-XX-XX-XX-XX-XX-XX|
A||-12-12-12-10-10-09-07-09-05--12-12-12-10-09-07--12-12-12-10-10-09-07-09-05--10-10-10-09-07-12/14/12|
E||---------------------------------------------------------------------------------------------------|

C         Am     
Se tudo faz lembrar você
    F            G             C
Vou te encontrar, tentar me aproximar
             F               G
Algo ficou para trás, meu vício é querer te ganhar
 C                     Am
Mas eu não vou deixar tudo se perder
  F         G              C
E ter você é o que me importa mais
           Am
Tudo acontece entre nós
   F                        G   e||--14/15-14---||
Na chance que eu puder te levar B||-------------||
 
(F - G)
Refrão:

e|----------------------------------------------|GUITARRA SOLO: FAZER ISSO JUNTO COM O REFRÃO.
B|----------------------------------------------|AHH NA SEGUNDA VEZ Q FIZER ISSO DE UMA ABAFADA.
G|-6-6-6-6-6-8-8-8-8-8-5-5-5-5-5-6-6-6-6-6------|SOA BEM LEGAL.
D|----------------------------------------------|
A|-4-4-4-4-4-6-6-6-6-6-3-3-3-3-3-4-4-4-4-4------|
E|----------------------------------------------|

      C                                   |
Foi você                                  |
    G            Am                       |
Que fez meu mundo desandar                |
F            C                            |
Me perder ao te encontrar                 |
   G            F              Am         |
Se conto as horas pra te convencer        |
        C                                 |           REFRÃO
Que é você                                |
  G              Am                       |
E não me importa mais ninguém             |
F             C                           |
Pra te ter vou mais além                  |
  G           F    Am                     |
E nada vai tirar você de mim              |

     C#5               B5        F#5           G#5   C#5               B5        F#5           G#5
e||---------------------------------------------------------------------------------------------------|
B||---------------------------------------------------------------------------------------------------|
G||-13-13-13-11-11-10-08-10-06--13-13-13-11-10-08--13-13-13-11-11-10-08-10-06--11-11-11-10-08-13/15/13|
D||-XX-XX-XX-XX-XX-XX-XX-XX-XX--XX-XX-XX-XX-XX-XX--XX-XX-XX-XX-XX-XX-XX-XX-XX--XX-XX-XX-XX-XX-XX-XX-XX|
A||-11-11-11-09-09-08-06-08-04--11-11-11-09-08-06--11-11-11-09-09-08-06-08-04--09-09-09-08-06-11/13/11|
E||---------------------------------------------------------------------------------------------------|
   

 |Mas se hoje insiste em não me atender
*|Nem vou ligar                               *OBS: eh igual a primeira parte 
 |Deixar tudo como está
 |manter a distância entre nós                            
 |Fugir é querer se enganar
 |Quer alegar que teus pais não querem entender
 |Que pra você eu não presto e não te deixo em paz
 |Mas se ficarmos a sós
 |a noite posso te completar

Refrão:

e|----------------------------------------------|
B|----------------------------------------------|
G|-6-6-6-6-6-8-8-8-8-8-5-5-5-5-5-6-6-6-6-6------|
D|----------------------------------------------|
A|-4-4-4-4-4-6-6-6-6-6-3-3-3-3-3-4-4-4-4-4------|
E|----------------------------------------------|

      C                                   |
Foi você                                  |
    G            Am                       |
Que fez meu mundo desandar                |
F            C                            |
Me perder ao te encontrar                 |
   G            F              Am         |
Se conto as horas pra te convencer        |
        C                                 |           REFRÃO
Que é você                                |
  G              Am                       |
E não me importa mais ninguém             |
F             C                           |
Pra te ter vou mais além                  |
  G           F    Am                     |
E nada vai tirar você de mim              |

Bb5              G#5
Me lembro do teu jeito
                     F#5
Daquelas fotos, teus e-mails
               G#5               Bb5     
Das coisas que você me disse aqui
              G#5             F#5
Tento te esquecer, mas é impossível
     G#5      
Impossível

sem você| -> nao se toca nada 

Solo: AHH LEMBRANDO QUE NA BASE DO SOLO SEGURE MAIS TEMPO AS NOTAS           

      (2x                ate qui    )                                     
e||---------------------------------------------------------------------------------------------
B||---------------------------------------------------------------------------------------------
G||-/13--11-10--11---10-8--6-----------------6/8/6/8/10/ 8/10/11/10/ 8--------------------------
D||---------------------------------------------------------------------6~----------------------
A||-/11--9---8--9----8--6--4-----------------4/6/4/6/ 8/ 6/ 8/ 9/ 8-/6--------------------------
E||---------------------------------------------------------------------4~----------------------

   C#5                    G#5                    F5
e|----------------------------------------------------------------------------------------
B|--20~-19~----------------20~-19-------------18---------------20-19-----20-19----20/22~-
G|----------19-21-19--------------18-19----19----21-19---21-19-------19--------19--------
D|--------------------------------------21-------------21--------------------------------
A|---------------------------------------------------------------------------------------
E|--------------------------------------------------------------------------------------

Refrão:
e|----------------------------------------------|
B|----------------------------------------------|
G|-6-6-6-6-6-8-8-8-8-8-5-5-5-5-5-6-6-6-6-6------|
D|----------------------------------------------|
A|-4-4-4-4-4-6-6-6-6-6-3-3-3-3-3-4-4-4-4-4------|
E|----------------------------------------------|

      C                                   |
Foi você                                  |
    G            Am                       |
Que fez meu mundo desandar                |
F            C                            |
Me perder ao te encontrar                 |
   G            F              Am         |
Se conto as horas pra te convencer        |
        C                                 |           REFRÃO
Que é você                                |
  G              Am                       |
E não me importa mais ninguém             |
F             C                           |
Pra te ter vou mais além                  |
  G           F    Am                     |
E nada vai tirar você de mim              |

C        G   

(Eu te espero aqui)
F         F#5         C#5
Nada vai tirar você de mim
         G#5
(Eu te espero aqui)
F         F#5
Nada vai tirar você de mim
Composição de Marcelo Mancini
163.435 exibições
    • ½ Tom
    • A
    • Bb
    • B
    • C
    • Db
    • D
    • Eb
    • E
    • F
    • F#
    • G
    • Ab
  • Adicionar à lista

    0 comentários

    Ver todos os comentários

    Conseguiu tocar?

    0 Tocaram 0 Ainda não

    Grave um vídeo tocando Aquela História e nos envie!

    00:00 / 00:00
    Outros vídeos desta música
    Repetir Qualidade Automático
    Outros vídeos desta música
    00:00 / 00:00
    Automático

    Cifra Club Pro

    Aproveite o Cifra Club com benefícios exclusivos e sem anúncios
    Cifra Club Pro
    Aproveite o Cifra Club com benefícios exclusivos e sem anúncios
    OK