Cifra Club

Ceu Completo

Strike

Cifra: Principal
exibições 91.238
Tom: A (com acordes na forma de G) Capotraste na 2ª casa
Intro solo 4x:
E|-------------|---------|--------|---------
B|--------3-0--|----0----|--------|-----0---
G|-------------|-------0-|----2-0-|--------0
D|----2--------|---------|--0-----|--2------
A|--3----------|---------|--------|---------
E|-------------|-3-------|--------|---------

Intro 2x: C9 G D Em7

C9            G               D
Só você me deu o que eu pude sentir
C9               G               D
E é louco o efeito que ela tem ao se apoderar de mim
C9              G            D
E a cada momento que a nossa história chega ao fim
C9                  G       D
É onde tudo recomeça e assim eu te espero aqui

C9  G  D         Em7
Te ter é me sentir como o céu completo
C9    G      D              Em7
E te perder é nunca ver o sol se abrir
C9          G                  D              Em7
Pois o vento que te leva um dia pode te trazer pra perto
C9    G      D         Em7
E não vou viver sem te ver sorrir

(C9 G D Em7)(2x)

C9            G          D
E a cada passo teu irei seguir
C9            G                D
A cada vez que me despeço, vejo o meu chão ruir
C9            G                D
E é tão intenso o que essa abstinência causa em mim
C9            G                D
Eu só encontro a paz se você está aqui porque

C9  G  D         Em7
Te ter é me sentir como o céu completo
C9    G      D              Em7
E te perder é nunca ver o sol se abrir
C9          G                  D              Em7
Pois o vento que te leva um dia pode te trazer pra perto
C9    G      D
E não vou viver sem te ver sorrir

Solo: C9 G D Em7 (4x)

E|--------------------------------------|
B|--------------------------------------|
G|-4/7-4--2-4-2-4-4/7-4-----------------|
D|--------------------------------------|
A|--------------------------------------|
E|--------------------------------------|

E|----------------------------------------|
B|----------------------------------------|
G|-2-4-2-4-4/7-7/9-7-4-2------2-----2/5-2-|
D|------------------------5-5---5-2-------|
A|----------------------------------------|
E|----------------------------------------|

C9            G                D
E acordar do teu lado é uma dádiva te olhar
C9            G                D
Sentir teu gosto e correr pro mar
C9            G                D
E o que há pra viver iremos permitir
C9            G                D
E ver o sol se por, tive que me perder pra encontrar o amor
C9            G                D
Já foi-se o tempo em que eu sentia dor
C9            G                D
E o que há pra viver iremos permitir, eu te espero aqui

C9  G  D         Em7
Te ter é me sentir como o céu completo
C9    G      D              Em7
E te perder é nunca ver o sol se abrir
C9          G                  D              Em7
Pois o vento que te leva um dia pode te trazer pra perto
C9    G      D         Em7
E não vou viver sem te ver sorrir

C9            G                D
Eu vou te encontrar, te roubar pra mim
C9            G                D
Tão longe de você sei que nada vai fluir
C9            G                D
Hoje eu vou te encontrar te roubar pra mim
C9            G                D
Pois o que há pra viver iremos permitir
Acordes para:

    0 comentários

      mostrar mais comentários

      Conseguiu tocar?

      25tocaram1ainda não

      Grave um vídeo tocando Ceu Completo e mande pra gente!

      00:00 / 00:00
      outros vídeos desta música
      repetirqualidadeautomática
      Outro vídeos desta música
        00:00 / 00:00
        automática
        OK