Cifra Club

Com Ou Sem Você

Strike

Cifra: Principal (violão e guitarra)
exibições 79.308
Tom: D
E|---------------------------------------------------------|
B|---------7----5-----7-5----------------7-----5-----5-7---|
G|---7------7-----7-------7---------7------7-----7-------7-|
D|-------------------------------5----5------5-----5-------|
A|---------------------------------------------------------|
E|-7---7-----7------7--------------------------------------|

(riff)

Eu não consigo acreditar em tudo que você falou pra mim.
Que eu não levo nada a sério
E que eu nunca vou mudar  e assim não dá.
É difícil ter que me imaginar  sem você
Pra deixar as coisas todas num lugar em volta.
E|--------------------------------------------------------------------]
B|--7-----7-----7---5-----5-----5---7-----7-----7-----7---8-----8-----]
G|----7-----7-----7---7-----7-----7---7-----7-----7-----7---7-----7---]
D|------0-----0---------0-----0---------0-----0-----0---------0-----0-]
A|--------------------------------------------------------------------]
E|--------------------------------------------------------------------]

E|--------------------------------------------------------------------]
B|--7-----7-----7---5-----5-----5---7-----7-----7-----7---8-----------]
G|----7-----7-----7---7-----7-----7---7-----7-----7-----7-------------]
D|------0-----0---------0-----0---------0-----0-----0-----------------]
A|--------------------------------------------------------------------]
E|--------------------------------------------------------------------]

D5               A5
Eu sei que ainda não é o fim
D5               G5
Eu sei que ainda não é o fim
D5               A5
Sei que é difícil de aceitar
D5            G5
Mas não me deixe.

(riff 2) D5  G5  D5  A5 

E|--------------------------------------]
B|--------------------------------------]
G|---14-------7-------11-----9----------]
D|---x--------x-------x------x----------]     (riff 2)
A|---12-------5-------9------7----------]
E|--------------------------------------]

(D5  G5)
Eu não sei o que é que eu fiz pra te deixar assim
Mas faço qualquer coisa pra você voltar pra mim
Eu sinto a sua falta
É difícil ter que te imaginar com alguém que possa te fazer mais feliz que eu
Porque não volta?

D5               A5
Eu sei que ainda não é o fim
D5               G5
Eu sei que ainda não é o fim
D5               A5
Sei que é difícil de aceitar
D5            G5
Mas não me deixe.

(2x)
                      A5
Sei que a noite refletiu
                     G5
O que eu tento esquecer
                 A5
Já que se permitiu
               B5
Não dá mais pra se arrepender
         G5                 A5
E se o final tem o início aqui
        D5         G5
Deixo tudo acontecer
                     A5         G5
Nunca é tarde pra recomeçar a viver
Com ou sem você

(riff 2)  D5  G5  D5  A5 

E|--------------------------------------]
B|--------------------------------------]
G|---14-------7-------11-----9----------]
D|---x--------x-------x------x----------]     (riff 2)
A|---12-------5-------9------7----------]
E|--------------------------------------]

D5               A5
Eu sei que ainda não é o fim
D5               G5
Eu sei que ainda não é o fim
D5               A5
Sei que é difícil de aceitar
D5            G5
Mas não me deixe.

(D5 A5 D5 G5)
Com ou sem você (3x)
Acordes para:

    0 comentários

    mostrar mais comentários

    Conseguiu tocar?

    10 tocaram 0 ainda não

    Grave um vídeo tocando Com Ou Sem Você e mande pra gente!

    00:00 / 00:00
    outros vídeos desta música
    repetir qualidade Automático
    Outros vídeos desta música
    00:00 / 00:00
    Automático
    OK