Cifra Club

O Jogo Virou

Strike

Cifra: Principal (violão e guitarra)
tom: B
[Intro]

E|------------------------------------------|
B|------------------------------------------|
G|------------------------------------------|
D|---4-6-4----------------------------------|
A|-2-----------4\6-4-----4-------2----------|
E|----------0---------2-----2-0-------------|

[Primeira Parte

             B9    E
Eu sigo em frente
      F#             E            
Hoje nada vai me abalar
       B9              E      F#
Sem olhar pra trás eu vou na fé
 E          B9                      E
Não vi que tudo ao meu redor ia desmoronar
         F#                     E
Como um sonho eu acordei em outro lugar
  B9    E          F#                   E
E eu senti que estrela brilhou, e nada faz parar

      B9                        E
Seis horas da manhã e o sol me toca
               F#                   E
Com a paz que renova tudo em minha volta
               B9                   E
Som a noite inteira com a lua refletindo
           F#                            E
No fim do túnel a luz que cerca o meu caminho
             B9                 E
Já ta tudo pronto pra trip decolar
        F#                   E
E na bagagem traz sorte pra somar
           B9                      E
Pela sensação de liberdade é conduzido
                F#                 E
Limita o seu pudor e libera seu libido

[Refrão]

            B9  E  F#
E o jogo virou
   E     B9  E
A casa caiu
    F#                           E
Causando a mil por hora e nada abala
            B9  E  F#
E o jogo virou
   E          B9           E
A mente se abriu, eu vou voar
         F#                           E
O mundo gira e bota sempre tudo no lugar

[Solo] B9  E  F#  E
       B9  E  F#  E

E|------------------------------------------|
B|-7-7-7\5-5-5-5\4-4-4-4\2-2/4--------------|
G|------------------------------------------|
D|------------------------------------------|
A|------------------------------------------|
E|------------------------------------------|

E|------------------------------------------|
B|-7/9-7---------------7\5------------------|
G|-------6h8-4--4---4--8\6------------------|
D|----------------6-------------------------|
A|------------------------------------------|
E|------------------------------------------|

[Segunda Parte]

       B9               E
Sem me arrepender, vou continuar
    F#                           E
Manter o equilíbrio é estar na brisa, levitar
           B9             E
Com minha bela na paz de Deus
       F#                   E
O que sobe pra mente faz o meu caminho o seu
          B9                   E
Tá tudo pronto com os pés na areia
            F#             E
E o brilho da cidade incendeia
              B9                     E
Segue a vida reverenciando o som do mar
           F#                      E
Vou na certeza que o sol vai me guiar

[Refrão]

            B9  E  F#
E o jogo virou
   E     B9  E
A casa caiu
    F#                           E
Causando a mil por hora e nada abala
            B9  E  F#
E o jogo virou
   E          B9           E
A mente se abriu, eu vou voar
         F#                           E
O mundo gira e bota sempre tudo no lugar

( B9  E  F# )
( B9  E  F# )

[Riff]

E|------------------------------------------|
B|-7/9\7--5/7\5--4--------------------------|
G|-8/9\8--6/8\6--4--------------------------|
D|------------------------------------------|
A|------------------------------------------|
E|------------------------------------------|

E|------------------------------------------|
B|-7/9\7--5/7\5--4--------------------------|
G|-8/9\8--6/8\6--4--------------------------|
D|------------------------------------------|
A|------------------------------------------|
E|------------------------------------------|

[Terceira Parte]

                  B9
Segue no rolé de bike

À noite eu entro em cena e o clima é bom
     E
Queimando a Babilônia
     F#
Legalize, eu faço um som
 B9
Não morro na praia, eu sei me aventurar
 E                    F#
Sou come-quieto, mas sei bem quando explanar
        B9
Que ela é toda imoral, de olhar já passo mal
     E                     F#
O encaixe foi perfeito, a sintonia surreal
   B9                                   
Ousada nova escola faz história 
                   E  F#
Estilo Reis de Dogtown

[Refrão]

            B9  E  F#
E o jogo virou
   E     B9  E
A casa caiu
    F#                           E
Causando a mil por hora e nada abala
            B9  E  F#
E o jogo virou
   E          B9           E
A mente se abriu, eu vou voar
         F#                           E
O mundo gira e bota sempre tudo no lugar

[Final] B9  E  F#
        B9  E  F#
        B9  E  F#
        B9  E  F#
00:00 / 00:00
Outros vídeos desta música
Repetir
Outros vídeos desta música
Composição de André Maini / Cadu / Fábio Perez / James Break / Luiz Carlos / Marcelo Mancini / Rodrigo Maciel
457.985 exibições
    • ½ Tom
    • A
    • Bb
    • B
    • C
    • Db
    • D
    • Eb
    • E
    • F
    • F#
    • G
    • Ab
  • Adicionar à lista

    0 comentários

    Ver todos os comentários

    Conseguiu tocar?

    43 Tocaram 2 Ainda não

    Grave um vídeo tocando O Jogo Virou e nos envie!

    Entre para oCifra Club PRO

    Tenha acesso a benefícios exclusivos no App e no Site

    • Chega de anúncios

    • Prioridade de compra em lançamentos

    • Mais recursos no app do Afinador

    • Atendimento Prioritário

    • Descontos nos produtos Cifra Club

    • Ajude a produzir mais conteúdo

    00:00 / 00:00

    Cifra Club Pro

    Aproveite o Cifra Club com benefícios exclusivos e sem anúncios
    Cifra Club Pro
    Aproveite o Cifra Club com benefícios exclusivos e sem anúncios
    OK