Enviar cifraEntrar

O Jogo Virou

Strike

Cifra: Principal
exibições 435.643
Tom: B
(intro)


E |----------------------------------|
B |----------------------------------|
G |----------------------------------|
D |---4-4s6-4------------------------|
A |-2-------------4s6-4-----4-------2|
E |------------0---------2-----2-0---|


B9                  E
Eu sigo em frente
      F#       E            B9
Hoje nada vai me abalar
                       E      F#
Sem olhar pra trás eu vou na fé
E            B9                     E
Não vi que tudo ao meu redor ia desmoronar
          F#                 E
Como um sonho eu acordei em outro lugar
  B9    E          F#                E
E eu senti que estrela brilhou, e nada faz parar
      B9                        E
Seis horas da manhã e o sol me toca
               F#                   E
Com a paz que renova tudo em minha volta
               B9                   E
Som a noite inteira com a lua refletindo
           F#                            E
No fim do túnel a luz que cerca o meu caminho
             B9                E
Já ta tudo pronto pra trip decolar
         F#                    E
E na bagagem traz sorte pra somar
           B9                    E
Pela sensação de liberdade é conduzido
                F#                 E
Limita o seu pudor e libera seu libido

           B9  F#
E o jogo virou
          E
A casa caiu
    F#                      E
Causando a mil por hora e nada abala
           B9   F#
E o jogo virou
               E
A mente se abriu, eu vou voar
         F#                     E
O mundo gira e bota sempre tudo no lugar

(solo)

E |-----------------------------------------------------------------|
B |-7-7-7\5-5-5-5\4-4-4-4\2-2-2-2\4----7\9-7--4-5-4----------2\4\2--|
G |-------------------------------------------------4----4-1--------|
D |-----------------------------------------------------------------|
A |-----------------------------------------------------------------|
E |-----------------------------------------------------------------|


(continua no mesmo ritmo)

(B9 E F# E)
Sem me arrepender, vou continuar
Manter o equilíbrio é estar na brisa, levitar
Com minha bela na paz de Deus
O que sobe pra mente faz o meu caminho o seu
Tá tudo pronto com os pés na areia
E o brilho da cidade incendeia
Segue a vida reverenciando o som do mar
Vou na certeza que o sol vai me guiar

(repete refrão)

2º Guitarra (1:53)
riff 2 (2x)

E |----------------------------------------------------|
B |----------------------------------------------------|
G |----------------------------------------------------|
D |-----------4\64-------------------------------------|
A |-----2-2--------4\64--------------------------------|
E |-----------------------00-00------------------------|


( B5  B5  E5  F#5 )
(aqui um violão faz o riff 3 enquanto o outro faz a base com as notas acima)

(riff 3)

E |----------------------------------------------------|
B |----------------------------------------------------|
G |----------------------------------------------------|
D |-----------4\64-------------------------------------|
A |-----2-2--------4\64--------------------------------|
E |-----------------------00-22------------------------|


                 B9
Segue no rolé de bike

À noite eu entro em cena e o clima é bom
    E
Queimando a Babilônia
    F#
Legalize, eu faço um som
B9
Não morro na praia, eu sei me aventurar
E                     F#
Sou come-quieto, mas sei bem quando explanar
    B9
Que ela é toda imoral, de olhar já passo mal
    E                          F#
O encaixe foi perfeito, a sintonia surreal
B9                                      E                F#
Ousada nova escola faz história estilo Reis de Dogtown

(refrão 2x)
  • 1
  • 2
  • 3
  • 4
  • 5
  • 6
  • 7
  • 8
  • 9
  • 10
  • 11
  • 12

    0 comentários

      mostrar mais comentários

      Conseguiu tocar?

      38tocaram2ainda não

      Grave um vídeo tocando O Jogo Virou e mande pra gente!

      00:00 / 00:00
      outros vídeos desta música
      repetirqualidadeautomática
      • automática
      Outro vídeos desta música
        00:00 / 00:00
        automática
        • automática
        1 versão de Guitar Proformatodownloadscontribuição
        fecharplay/pause subir/descer velocidade
          acordes
          fechar
          OK
          Feedback