Cifra Club

Black Friday Cifra Club

First Love

Stryper

Cifra: Principal (violão e guitarra)
tom: E (forma dos acordes no tom de F) Afinação: Eb Ab Db Gb Bb Eb
Intro:
      H        Q    Q       Q    Q    Q    Q       H        Q    Q
D#||--1-------------1----|--3----5----1----0----|--1-------------1----|
A#||-----------1---------|----------------------|-----------1---------|
F#||---------------------|----------------------|---------------------|
C#||--3------------------|--2-------------------|--0------------------|
G#||---------------------|----------------------|---------------------|
D#||---------------------|----------------------|---------------------|


  Q    Q    Q    Q       H        Q    E  E     H        Q    Q
--3----5----1----0----|--1-------------3--1--|--0-------------0----|
----------------------|-----------3----------|-----------1---------|
----------------------|----------------------|---------------------|
----------------------|----------------------|---------------------|
--3-------------------|--1-------------------|--3------------------|
----------------------|----------------------|---------------------|

  Q.     S S H           Q    H.
--0------1-0----------|--3----3------------|
-------------3--------|--3----3------------|
----------------------|--5----5------------|
--0-------------------|--------------------|
----------------------|--3----3------------|
----------------------|--------------------|

F           E/C          Dm
She waits alone, oh every night
C               Bb
Tears are in her eyes
          C                 Dm       Am
She has lost all the love she had

F            E/C          Dm
She lived her life for Him each day
C                  Gm
She threw it all away
Gm/F#                    Gm/F                C
To live for herself - live her life her way

Chorus
Dm           A/C#      C               G
There is no love like the love of your first love
Bb
It's so true
         C         Dm     Am
It's for you as you are
Dm
Tears in the night
A/C#
Filled with pain
       C                G
You're running from the love
    Bb              C        Am
That you had once before - your first love

Dedilhado

-----1--------0--------1--|----3--------3--------3---|
--------3--------3--------|-------3--------3---------|
-----------2--------2-----|----------2--------2------|
--0-----------------------|--------------------------|
--------------------------|--4-----------------------|
--------------------------|--------------------------|

   E  E  E  E  E  E  E  E     E  E  E  E  E  E  E  E
-----3--------3--------3--|--------------------------|
--------3--------3--------|-----1--------1--------1--|
-----------2--------2-----|--------0--------0--------|
--------------------------|-----------2--------2-----|
--3-----------------------|--3-----------------------|
--------------------------|--------------------------|


F           E/C          Dm
Someone to hold you though the pain
C               Bb
To make you smile again
       C           Dm       Am
And to protect you forever

F            E/C          Dm
Someone to take your fears away
C                  Gm
To help you through each day
Gm/F#                    Gm/F                C
To carry you when you just can't go on


Chorus

Dm           A/C#      C               G
There is no love like the love of your first love
Bb
It's so true
         C         Dm     Am
It's for you as you are
Dm
Tears in the night
A/C#
Filled with pain
       C                G
You're running from the love
    Bb              C        Am
That you had once before - your first love

Oz Fox guitar
------------------------|-----------|------------------------|
------------------------|-----------|------------------------|
------------------------|-----------|------------------------|
--7--7--7---------7--7--|--7--------|--7br------7-5-7--------|
--5--5--5---------5--5--|--5--------|------------------------|
------------------------|-----------|------------------------|

   H           H            Q.       S  S  Q    E  S S
------------------------|------------------------------|
--17br--------15--------|--20b------20-18-20----L------|
------------------------|--------------------------4---|
------------------------|----------------------------7-|
------------------------|------------------------------|
------------------------|------------------------------|

  H         S  S  S S  S S S  S    Q    E   S  S  S S  E    S  S  S  S
--------------------------------|--------------------------------------|
-----------10-11-10-8-----------|----------------13---13b--13-11-10----|
----------------------10-9-7----|----------10-12--------------------12-|
--5--------------------------10-|--8----L------------------------------|
--------------------------------|--------------------------------------|
--------------------------------|--------------------------------------|

             |--3--|  |--3--|  |--3--|  |--3--|
   H         S  S  S  S  S  S  S  S  S  S  S  S
---------------------------------12-13-12-13-15-|
------------------------13-15-15----------------|
------------12-14-15-15-------------------------|
--10--------------------------------------------|
------------------------------------------------|
------------------------------------------------|

    H          S  T  T  S  S  S  S  E
--13~--------12-13-12----12-13-15-15br--|
----------------------15----------------|
----------------------------------------|
----------------------------------------|
----------------------------------------|
----------------------------------------|

  S  S  S  S  T  T  T  S  S  Q    Q    T     Q.        S  S  H
--L-13-15-13-12-13-12----12--------------|--22br------22-21-22--------|
----------------------15----14-----------|----------------------------|
-----------------------------------------|----------------------------|
-----------------------------------------|----------------------------|
-----------------------------------------|----------------------------|
-----------------------------------------|----------------------------|

   H          H
--22b--------22--------|
-----------------------|
-----------------------|
-----------------------|
-----------------------|
-----------------------|

   S  T  T  S  S  S  S  S  T  T  S  S  S  S  S  S  S  S
--17-18-17----17----------------------------------------|
-----------20----18-20-18-20-18-17-18----17-17----------|
--------------------------------------19-------19-18-17-|
--------------------------------------------------------|
--------------------------------------------------------|
--------------------------------------------------------|

   Q.      H          E      Q.       S  S  S  S  S  S  S  S  S  S
-------------------------|--15b------13-12-------------------------|
-------------------------|-----------------15-13----------------13-|
--16------16br--------L--|-----------------------15-14-12----14----|
-------------------------|--------------------------------15-------|
-------------------------|-----------------------------------------|
-------------------------|-----------------------------------------|

   Q.      S  S  Q    E  S S    H        S T T S S S T T S S
--12------12-13-12----L------|-------------------------------|
-----------------------------|-----------6-8-6-5-------------|
-------------------------7-9-|--7----------------7-5-7-5-----|
-----------------------------|---------------------------7-8-|
-----------------------------|-------------------------------|
-----------------------------|-------------------------------|

  H        H              H        H           H        H
-----------------------|--------------------|--------------------|
-----------------------|--------------------|--------------------|
-----------------------|--------------------|--------------------|
--7--------7pbr--------|--7--------7--------|--------------------|
-----------------------|--5--------5--------|--4--------4--------|
-----------------------|--------------------|--------------------|

  H        H           H        H           H        H
--------------------|--------------------|--------------------|
--------------------|--------------------|--------------------|
--------------------|--------------------|--------------------|
--5--------5--------|--------------------|--3--------3--------|
--3--------3--------|--2--------2--------|--1--------1--------|
--------------------|--------------------|--------------------|

  H        H           H        H           E  E  E  E  H
--------------------|--------------------|-----------------------|
--------------------|--------------------|-----------------------|
--------------------|--------------------|-----------------------|
--5--------5--------|--8--------8--------|--8--8--8--------------|
--3--------3--------|--6--------6--------|--6--6--6--------------|
--------------------|--------------------|-----------------------|

  H        E  Q.        H        E  Q.        H        E  Q.
---------------------|---------------------|---------------------|
---------------------|---------------------|---------------------|
---------------------|---------------------|---------------------|
-----------7---------|-----------7---------|-----------5---------|
--5-----------5------|--4-----------4------|--3-----------3------|
---------------------|---------------------|---------------------|

  H        H           H        H           H        H
--------------------|-----------1--------|-----------3--------|
--------------------|-----------1--------|-----------3--------|
--------------------|--------------------|-----------5--------|
--------------------|--3--------L--------|--5--------L--------|
--2--------2--------|--1--------L--------|--3--------L--------|
--------------------|--------------------|--------------------|

  H        E  E  Q       Q    E  E  E  E  E  E     H        E  Q.
----------------------|-------------------------|---------------------|
----------------------|-------------------------|---------------------|
----------------------|-------------------------|---------------------|
--7--------7--5--7----|--L----7-----7-----7--5--|-----------7---------|
--5--------5--3--5----|--L----5-----5-----5--3--|--5-----------5------|
----------------------|-------------------------|---------------------|

  H        E  Q.        H        E  Q.        H        H
---------------------|---------------------|--------------------|
---------------------|---------------------|--------------------|
---------------------|---------------------|--------------------|
-----------6---------|-----------5---------|--------------------|
--4-----------4------|--3-----------3------|--2--------2--------|
---------------------|---------------------|--------------------|

   H        H           H        H            E   E   E  H        E
-----------1--------|-----------3--------|--------------------------|
-----------1--------|-----------3--------|--10--10--10--------------|
--------------------|-----------5--------|---9---9---9--------------|
--3--------L--------|--5--------L--------|--------------------------|
--1--------L--------|--3--------L--------|--------------------------|



Michael Sweet Guitar


------------------------|-----------|---------------------------|
------------------------|-----------|---------------------------|
------------------------|-----------|--10br------10-9-10--------|
--7--7--7---------7--7--|--7--------|---------------------------|
--5--5--5---------5--5--|--5--------|---------------------------|
------------------------|-----------|---------------------------|

   H           H            Q.       S  S  Q    E  S S
------------------------|------------------------------|
------------------------|--15b------15-13-15----L------|
--12br--------10--------|--------------------------7-5-|
------------------------|------------------------------|
------------------------|------------------------------|
------------------------|------------------------------|

  H        S  S S  S  S S  S S    Q    E  S  S  S S  E     S  S S  S
-----------8-10-8--------------|---------------12---12br--12-10-8----|
------------------11-10-8------|------------10--------------------11-|
--4-----------------------10-9-|--7----L--9--------------------------|
-------------------------------|-------------------------------------|
-------------------------------|-------------------------------------|
-------------------------------|-------------------------------------|

            |--3--|  |--3--|  |--3--|  |--3--|
  H         S  S  S  S  S  S  S  S  S  S  S  S
-----------------------------13-15-17-13-15-17-|
-----------13-15-17-13-15-17-------------------|
--9--------------------------------------------|
-----------------------------------------------|
-----------------------------------------------|
-----------------------------------------------|

    H          S  T  T  S  S  S  S  E
--18~----------------------------------|
-------------10-11-10----10-11-13-13b--|
----------------------12---------------|
---------------------------------------|
---------------------------------------|
---------------------------------------|

  S  S  S  S  T  T  T  S  S  Q    Q    T     Q.        S  S  H
-----------------------------------------|--13br------13-12-13--------|
--L-11-13-11-10-11-10----10-10-----------|----------------------------|
----------------------12-----------------|----------------------------|
-----------------------------------------|----------------------------|
-----------------------------------------|----------------------------|
-----------------------------------------|----------------------------|

   H          H
--13b--------13--------|
-----------------------|
-----------------------|
-----------------------|
-----------------------|
-----------------------|

   S  T  T  S  S  S  S  S  T  T  S  S  S  S  S  S  S  S
--15-17-15-13-15-12-13-13-15-13-12-13-10-12-10----------|
-----------------------------------------------13-11-10-|
--------------------------------------------------------|
--------------------------------------------------------|
--------------------------------------------------------|
--------------------------------------------------------|

   Q.      H          E      Q.      S S S S S S S S S S
-------------------------|--12b--------------------------|
-------------------------|-----------8-6-5---------------|
--12------12br--------L--|-----------------7-5-----------|
-------------------------|---------------------7-5---5-7-|
-------------------------|-------------------------7-----|
-------------------------|-------------------------------|

  Q.     S S Q    E  S S    H        S T T S S S T T S S
-------------------------|-------------------------------|
---------------------6-8-|--6--------3-5-3---------------|
--5------5-7-5----L------|-----------------5-3-2-3-2-----|
-------------------------|---------------------------3-5-|
-------------------------|-------------------------------|
-------------------------|-------------------------------|

  H        H              H        H           H        H
-----------------------|--------------------|--------------------|
-----------------------|--------------------|--------------------|
-----------------------|--------------------|--------------------|
--3--------2pbr--------|--7--------7--------|--------------------|
-----------------------|--5--------5--------|--7--------7--------|
-----------------------|--------------------|--------------------|

  H        H           H        H           H        H
--------------------|--------------------|--------------------|
--------------------|--------------------|--------------------|
--------------------|--------------------|--------------------|
--5--------5--------|--------------------|--3--------3--------|
--3--------3--------|--5--------5--------|--1--------1--------|
--------------------|--3--------3--------|--------------------|

  H        H           H        H           E  E  E  E  H
--------------------|--------------------|-----------------------|
--------------------|--------------------|-----------------------|
--------------------|--------------------|-----------------------|
--5--------5--------|--8--------8--------|--8--8--8--------------|
--3--------3--------|--6--------6--------|--6--6--6--------------|
--------------------|--------------------|-----------------------|

  H        E  Q.        H        E  Q.        H        E  Q.
---------------------|---------------------|---------------------|
---------------------|---------------------|---------------------|
---------------------|---------------------|---------------------|
-----------7---------|-----------6---------|-----------5---------|
--5-----------5------|--7-----------7------|--3-----------3------|
---------------------|---------------------|---------------------|

  H        E  Q.        H        H           H        H
---------------------|-----------1--------|-----------3--------|
---------------------|-----------1--------|-----------3--------|
---------------------|--------------------|-----------5--------|
---------------------|--3--------L--------|--5--------L--------|
-----------2---------|--1--------L--------|--3--------L--------|
--3-----------3------|--------------------|--------------------|

  H        E  E  Q       Q    E  E  E  E  E  E     H        E  Q.
----------------------|-------------------------|---------------------|
----------------------|-------------------------|---------------------|
----------------------|-------------------------|---------------------|
--7--------7--5--7----|--L----7-----7-----7--5--|-----------7---------|
--5--------5--3--5----|--L----5-----5-----5--3--|--5-----------5------|
----------------------|-------------------------|---------------------|

  H        E  Q.        H        E  Q.        H        E  Q.
---------------------|---------------------|---------------------|
---------------------|---------------------|---------------------|
---------------------|---------------------|---------------------|
---------------------|-----------5---------|---------------------|
--7--------7--7------|--3-----------3------|-----------2---------|
---------------------|---------------------|--3-----------3------|

   H        H           H        H           E  E  E  H        E
-----------1--------|-----------3--------|-----------------------|
-----------1--------|-----------3--------|-----------------------|
--------------------|-----------5--------|-----------------------|
--3--------L--------|--5--------L--------|--7--7--7--------------|
--1--------L--------|--3--------L--------|-----------------------|
--------------------|--------------------|-----------------------|
00:00 / 00:00
Outros vídeos desta música
Repetir
Outros vídeos desta música
Compositor não encontrado.
Colaboração e revisão:
  • rodrigo souza
  • cláudia Lucas
2.019 exibições
    • ½ Tom
    • A
    • Bb
    • B
    • C
    • Db
    • D
    • Eb
    • E
    • F
    • F#
    • G
    • Ab
  • Adicionar à lista

    0 comentários

    Ver todos os comentários

    Entre para oCifra Club PRO

    Tenha acesso a benefícios exclusivos no App e no Site

    • Chega de anúncios

    • Prioridade de compra em lançamentos

    • Mais recursos no app do Afinador

    • Atendimento Prioritário

    • Descontos nos produtos Cifra Club

    • Ajude a produzir mais conteúdo

    00:00 / 00:00

    Cifra Club Pro

    Aproveite o Cifra Club com benefícios exclusivos e sem anúncios
    Cifra Club Pro
    Aproveite o Cifra Club com benefícios exclusivos e sem anúncios
    OK