Cifra Club

Remember

Stu Hamm

Tab de baixo: Principal
Tabbed By : ernesto
e-mail: *

Tuning:EADG

G|---------------------------19----------------------------------------------|
D|-------------9----16/17----------------------------------------------------|X4
A|--------7------------------------------------------------------------------|
E|---0-----------------------------8----10-----------------------------------|
here play the E string with you thumb (of your right hand) then with your left
hand tap A string on 7th fret wirh you index finger now tap D string on 9th fret 
with your ring (or pinky) finger now back with your right hand tap D string on
16th fret with your index finger and then you slide to the 17th fret then you
tap the G string on 19th fret with either your middle, ring or pinky finger now
you can tap te 8th and 10th fret with your left hand or press them and play with
your thumb of your right hand

guitar enters
G|---------------------------19----------------------------------------------|
D|-------------9----16/17----------------------------------------------------|X8
A|--------7------------------------------------------------------------------|
E|---0-----------------------------8----10-----------------------------------|
same as above

G|---------------------------17----------------------------------------------|
D|-------------7----14/15----------------------------------------------------|X4
A|--------5------------------------------------------------------------------|
E|---0-----------------------------1----3------------------------------------|
the same just a little lower

G|---------------------------19----------------------------------------------|
D|-------------9----16/17----------------------------------------------------|X4 
A|--------7------------------------------------------------------------------|
E|---0-----------------------------8----10-----------------------------------|

G|-----------------16-------------------------------16-----------------------|
D|-------14---16--------16---14-----------13---15--------15---13-------------|
A|---------------------------------------------------------------------------|
E|---5----------------------------4---5----------------------------4---3-----|
here you tap the E string with your left hand an the D and A string with your right hand

G|-------------16-------------------------------16---------------------------|
D|---12---14--------14---12-----------13---15--------15---13-----------------|
A|---------------------------------------------------------------------------|
E|----------------------------3---4----------------------------4-------------|
same as above

G|---16--------19--------16--------19--------16------------------------------|
D|-------------------------------------------17--------14--16----------------|
A|-------------------------------------------------------------14------------|
E|---5-------------------4-------------------3---------------------15--------|
here you play like above just in the end (last 4 notes) you play like a normal
bass in other words you dont tap it hehe

| /  slide up
| \  slide down
| h  hammer-on
| p  pull-off
| ~  vibrato
| +  harmonic
| x  Mute note
===============================================================================
00:00 / 00:00
Outros vídeos desta música
Repetir
Outros vídeos desta música
Compositor não encontrado.
258 exibições

0 comentários

Ver todos os comentários

Conseguiu tocar?

0 Tocaram 0 Ainda não

Grave um vídeo tocando Remember e nos envie!

Entre para oCifra Club PRO

Tenha acesso a benefícios exclusivos no App e no Site

  • Chega de anúncios

  • Prioridade de compra em lançamentos

  • Mais recursos no app do Afinador

  • Atendimento Prioritário

  • Descontos nos produtos Cifra Club

  • Ajude a produzir mais conteúdo

00:00 / 00:00

Cifra Club Pro

Aproveite o Cifra Club com benefícios exclusivos e sem anúncios
Cifra Club Pro
Aproveite o Cifra Club com benefícios exclusivos e sem anúncios
OK