Cifra Club

Hideaway

Student Rick

Cifra: Principal (violão e guitarra)
tom: D


Great song

Intro (Guitar 1)
|-12---12---12---12---12---12---12---12----------------------------------|
|------------------------------------------------------------------------|
|---14---14---14---14---13---13---13---13-------9--13-14-13---9-13-14-13-|      X2
|--------------------------------------------0--------------0------------|
|------------------------------------------------------------------------|
|------------------------------------------------------------------------|

2nd Intro/Verse (Guitar 2)
PM-----------------------------------------------|
|----------------------------------------------------|
|----------------------------------------------------|
|----------------------------------------------------|    Play Till Chorus
|---------------------------------7-7-7-7-7-7-7-7----|
|-7-7-7-7-7-7-7-7-7-7-7-7-7-7-7-7-5-5-5-5-5-5-5-5----|
|-5-5-5-5-5-5-5-5-4-4-4-4-4-4-4-4--------------------|

2nd Intro (Guitar 1) 
|-------------------------------------------------|
|-------------------------------------------------|
|-14-14-14-14-14-14-14-14-13-13-13-13-13-13-13-13-|
|-------------------------------------------------|
|-------------------------------------------------|
|-------------------------------------------------|

|--------------------------------------------------|
|--------------------------------------------------|
|-14-14-14-16-16-16-16-16-14-14-14-16-16-16-16-16--|     X2
|--------------------------------------------------|
|--------------------------------------------------|
|--------------------------------------------------|

Verse (Guitar 1) Play this after the intro 2X
|-12-------------12--------------12----12----12----12----14----12-10----|
|-----------------------------------------------------------------------|        
|----14-16-16-14----14-16-16-14-----14----14----14----14----14----------|      X2
|-----------------------------------------------------------------------|
|-----------------------------------------------------------------------|
|-----------------------------------------------------------------------|

Chorus (Guitar 2)
|----------------------------------------------------|
|----------------------------------------------------|
|----------------------------------------------------|    X4
|---------------------------------7-7-7-7-7-7-7-7----|
|-7-7-7-7-7-7-7-7-7-7-7-7-7-7-7-7-5-5-5-5-5-5-5-5----|
|-5-5-5-5-5-5-5-5-4-4-4-4-4-4-4-4--------------------|

Chorus Guitar 1 plays 2nd Intro 4X


Breakdown Riff (Guitar 1)
|-12-10-9-10-12-10-9-10-12-10-9-10-12-10-9h10p9------|
|----------------------------------------------------|
|----------------------------------------------------|
|----------------------------------------------------|
|----------------------------------------------------|
|----------------------------------------------------|

Repeat Verse and Chorus

                          PM---------------------|
|----------------------------------------------------|
|----------------------------------------------------|
|-7-----------7---------7-7-7-7-7-7-7-7-7-7-7-7-7----|
|-7-----------7---------7-7-7-7-7-7-7-7-7-7-7-7-7----|
|-5-----------5---------5-5-5-5-5-5-5-5-5-5-5-5-5----|
|-------------5--------------------------------------|

Chorus 

|-----------------------------------------------------|
|------------------------------9----------------------|
|-7-----------7--------7------------------7-----------|
|-7-----------7--------7------------------7-----------|
|-5-----------5--------5------------------5-----------|
|-----------------------------------------5-----------|

END
00:00 / 00:00
Outros vídeos desta música
Repetir
Outros vídeos desta música
Composição de Student Rick
228 exibições
    • ½ Tom
    • A
    • Bb
    • B
    • C
    • Db
    • D
    • Eb
    • E
    • F
    • F#
    • G
    • Ab
  • Adicionar à lista

    0 comentários

    Ver todos os comentários

    Conseguiu tocar?

    0 Tocaram 0 Ainda não

    Grave um vídeo tocando Hideaway e nos envie!

    00:00 / 00:00

    Cifra Club Pro

    Aproveite o Cifra Club com benefícios exclusivos e sem anúncios
    Cifra Club Pro
    Aproveite o Cifra Club com benefícios exclusivos e sem anúncios
    OK