Cifra Club

A Hora da Merenda

Subefeito

Cifra: Principal (violão e guitarra)
tom: E
[Intro] B5  A5  Gb5  B5  A5
        Gb5  B5  A5  Gb5  A5
        B5  A5  Gb5  B5  A5
        Gb5  B5  A5  Gb5  A5

[Tab - Riff 1]

Parte 1 De 2

E|------------------------------------------|
B|------------------------------------------|
G|------------------------------------------|
D|------------------------------------------|
A|-----------------2-2-2-2-0-0-0-0----------|
E|-0-0-0-0-2-2-2-2--------------------------|

Parte 2 De 2

E|------------------------------------------|
B|------------------------------------------|
G|------------------------------------------|
D|------------------------------------------|
A|-----------------2-2-2-2-0-0-0-0----------|
E|-0-0-0-0-2-2-2-2--------------------------|

         E         Gb        B        A          
A melhor hora da escola é a hora da merenda
         E         Gb        B        A
A melhor hora da escola é a hora da merenda

[Tab - Riff 2]

Parte 1 De 5

E|------------------------------------------|
B|------------------------------------------|
G|------------------------------------------|
D|------------------------------------------|
A|---------------0-0-0-0-2------------------|
E|-0-0-0-0-2--------------------------------|

Parte 2 De 5

E|------------------------------------------|
B|------------------------------------------|
G|------------------------------------------|
D|------------------------------------------|
A|---------------0-0-0-0-2------------------|
E|-0-0-0-0-2--------------------------------|

Parte 3 De 5

E|------------------------------------------|
B|------------------------------------------|
G|------------------------------------------|
D|------------------------------------------|
A|---------------0-0-0-0-2------------------|
E|-0-0-0-0-2--------------------------------|

Parte 4 De 5

E|------------------------------------------|
B|------------------------------------------|
G|------------------------------------------|
D|------------------------------------------|
A|---------------0-0-0-0-2------------------|
E|-0-0-0-0-2--------------------------------|

Parte 5 De 5

E|------------------------------------------|
B|------------------------------------------|
G|------------------------------------------|
D|------------------------------------------|
A|----0-0-0-0-0-0-0-0-----------------------|
E|------------------------------------------|

E            Gb
Eu não tenho aula
A              B
Eu não tenho pressa
E              Gb
Não tenho professor
A              B
A aula não interessa

E             Gb
Salsicha com arroz
A               B
Repolho sem feijão
E            Gb
Bala de sobremesa
A                B   A
E um corpo na saída

[Tab - Riff 1]

         E         Gb       B         A
A melhor hora da escola é a hora da merenda
         E         Gb       B         A
A melhor hora da escola é a hora da merenda

[Tab - Riff 2]

E                Gb
Salário de professor
A           B
Salada de batata
E          Gb
Greve no estado
A            B
Pizza de deputado
E             Gb
Não vou se doutor
A               B
Me formei em avião
E           Gb
Busco pra galera
A            B   A
O que ela quiser

[Tab - Riff 3]

Parte 1 De 5

E|------------------------------------------|
B|------------------------------------------|
G|------------------------------------------|
D|------------------------------------------|
A|----------------2-2-2-2-0-0-0-0-----------|
E|0-0-0-0-2-2-2-2---------------------------|

Parte 2 De 5

E|------------------------------------------|
B|------------------------------------------|
G|------------------------------------------|
D|------------------------------------------|
A|----------------0-0-0-0-2-2-2-2-----------|
E|0-0-0-0-2-2-2-2---------------------------|

Parte 3 De 5

E|------------------------------------------|
B|------------------------------------------|
G|------------------------------------------|
D|------------------------------------------|
A|-----------------2-2-2-2-0-0-0-0----------|
E|-0-0-0-0-2-2-2-2--------------------------|

Parte 4 De 5

E|------------------------------------------|
B|------------------------------------------|
G|------------------------------------------|
D|------------------------------------------|
A|-----------------0-0-0-0-2~---------------|
E|-0-0-0-0-2-2-2-2--------------------------|

Parte 5 De 5

E|------------------------------------------|
B|------------------------------------------|
G|------------------------------------------|
D|------------------------------------------|
A|---0-0-0-0-0-0-0-0------------------------|
E|------------------------------------------|

[Tab - Riff 1]

         E         Gb        B        A          
A melhor hora da escola é a hora da merenda
         E         Gb        B        A
A melhor hora da escola é a hora da merenda

[Tab - Riff 4]

Parte 1 De 3

E|-------------------------------------------------|
B|-------------------------------------------------|
G|-------------------------------------------------|
D|-------------------------------------------------|
A|-----------------0-0-0-0-2-2-2-2-----------------|
E|-0-0-0-0-2-2-2-2-----------------0-0-0-0-2-2-2-2-|

Parte 2 De 3

E|-------------------------------------------------|
B|-------------------------------------------------|
G|-------------------------------------------------|
D|-------------------------------------------------|
A|2-2-2-2-0-0-0-0------------------0-0-0-0-2-2-2-2-|
E|----------------0-0-0-0-2-2-2-2------------------|

Parte 3 De 3

E|-------------------------------------------------|
B|-------------------------------------------------|
G|-------------------------------------------------|
D|-------------------------------------------------|
A|-----------------2-2-2-2-0-0-0-0-0-0-0-0---------|
E|-0-0-0-0-2-2-2-2---------------------------------|

E              Gb
Quando não tem guerra
A          B
fica pra saída
E            Gb
Cata garfo e faca
     B        A
E prepara pra briga

E                 Gb
Picharam minha carteira
A            B
Não sou paga pau
E                    Bb
Bullying não é brincadeira
B         A
Leva na moral

[Tab - Riff 5]

E|------------------------------------------|
B|------------------------------------------|
G|------------------------------------------|
D|------------------------------------------|
A|-----------------0-0-0-0-2-2-2-2----------|
E|-0-0-0-0-2-2-2-2-----------------0-0-0-0-2|

         E         Gb        A        B          
A melhor hora da escola é a hora da merenda
E                Gb
Porque eu to com fome
00:00 / 00:00
Outros vídeos desta música
Repetir
Outros vídeos desta música
Composição de Davi Ferreira
Colaboração e revisão:
  • Davi Ferreira
72 exibições
    • ½ Tom
    • A
    • Bb
    • B
    • C
    • Db
    • D
    • Eb
    • E
    • F
    • F#
    • G
    • Ab
  • Adicionar à lista

    0 comentários

    Ver todos os comentários

    Conseguiu tocar?

    0 Tocaram 0 Ainda não

    Grave um vídeo tocando A Hora da Merenda e nos envie!

    Entre para oCifra Club PRO

    Tenha acesso a benefícios exclusivos no App e no Site

    • Chega de anúncios

    • Prioridade de compra em lançamentos

    • Mais recursos no app do Afinador

    • Atendimento Prioritário

    • Descontos nos produtos Cifra Club

    • Ajude a produzir mais conteúdo

    00:00 / 00:00

    Cifra Club Pro

    Aproveite o Cifra Club com benefícios exclusivos e sem anúncios
    Cifra Club Pro
    Aproveite o Cifra Club com benefícios exclusivos e sem anúncios
    OK