Cifra Club

Aprenda

Gueto

Subefeito

Cifra: Principal (violão e guitarra)
tom: B
[Intro] B5  Db5  A  B

E|---------------------------------------------------------------------------------------------------------------------------------------|
B|---------------------------------------------------------------------------------------------------------------------------------------|
G|---------------------------------------------------------------------------------------------------------------------------------------|
D|---------------------------------------------------------------------------------------------------------------------------------------|
A|---2-2-4-5-4-2-0-0-0-0-2-4-0-----------------------------------------------------------------------------------------------------------|
E|---------------------------------------------------------------------------------------------------------------------------------------|

E|---------------------------------------------------------------------------------------------------------------------------------------|
B|---------------------------------------------------------------------------------------------------------------------------------------|
G|---------------------------------------------------------------------------------------------------------------------------------------|
D|---------------------------------------------------------------------------------------------------------------------------------------|
A|---2-4-0-------------------------------------------------------------------------------------------------------------------------------|
E|---------3-3-3-3-3-3-3-3-0-^3-^3-^3-0-3-0-0-0-0-0-0-0-0--------------------------------------------------------------------------------|

E|---------------------------------------------------------------------------------------------------------------------------------------|
B|---------------------------------------------------------------------------------------------------------------------------------------|
G|---------------------------------------------------------------------------------------------------------------------------------------|
D|---------------------------------------2-2-2-4-5-4-2-0-0-0-0-2-4-0-2-4-2-2-4-5-4-2-0-0-0-0-2-4-0---------------------------------------|
A|---2-2-4-5-4-2-0-0-0-0-2-4-0-2-4-4-5-5-5-----------------------------------------------------------2-2-4-5-4-2-0-0-0-0-2-4-0-2-4-0-----|
E|---------------------------------------------------------------------------------------------------------------------------------------|

B5          A5      D5  A5  B5 
  Saindo da boa ele segue reto
             A5                 D5  A5  B5  
A caminho da boca passando pelo pé do morro
             G5   A5    B5    G5  A5
Percebe que uzomi tão subindo

B5            A5    D5  A5  B5 
  Dispensa então seu estilete
             A5  D5  A5  B5
Pra tomar geral na limpeza
           G5     A5      B5   G5  A5
Mas não adianta é tapa na cara

( B5  Db5  A  B )

B5         A5           D5  A5  B5 
  Sô policial eu sou trabalhador
              A5     D5  A5  B5 
Agente vive aqui com muita dor
         G5        A5        B5     G5  A5
Me deixa ir que eu tô sem flagrante

B5           A5    D5   A5  B5
  E seguindo reto uzomi invade
              A5      D5  A5  B5 
E o comando reage com chumbo grosso
                G5       A5     B5   G5  A5
Se você não correr vai levar pinpoco

B5          A5   D5  A5  B5 
  E corre Marias e Josefinas
         A5       D5  A5  B5 
E cai um corpo de um soldado
          G5     A5       B5     G5  A5
E ninguém vai vencer essa guerra

B5             A5     D5  A5   B5 
  No final das contas chora Maria
          A5        D5  A5  B5 
A bala perdida que acerta João
             G5    A5      B5  G5  A5
Atravessa também o seu coração

B5           A5    D5  A5  B5 
  Mais uma batalha na pobreza
            A5         D5  A5  B5 
O terror do povo e a desilusão
           G5     A5       B5
Lágrimas e sangue secam no chão
Composição de Davi Alves Ferreira
Colaboração e revisão:
  • Davi Ferreira
3 exibições
    • ½ Tom
    • A
    • Bb
    • B
    • C
    • Db
    • D
    • Eb
    • E
    • F
    • F#
    • G
    • Ab
  • Adicionar à lista

    0 comentários

    Ver todos os comentários

    Conseguiu tocar?

    0 Tocaram 0 Ainda não

    Grave um vídeo tocando Gueto e nos envie!

    00:00 / 00:00
    outros vídeos desta música
    repetir qualidade Automático
    Outros vídeos desta música
    00:00 / 00:00
    Automático

    Cifra Club Pro

    Aproveite o Cifra Club com benefícios exclusivos e sem anúncios
    Cifra Club Pro
    Aproveite o Cifra Club com benefícios exclusivos e sem anúncios
    OK