Cifra Club

40 Oz To Freedom

Sublime

Cifra: Principal
exibições 17.141
Tom: C
Date: Sat, 2 Oct 1999 23:54:00 -0700 (PDT)
From: chance hayden 


"40 oz. To Freedom"


Don't brake your back!
                                                      
                                        d=down strokes
                                        u=up sturm  
                                        /=slide
                                        v=vibrato
    



    INTRO/VERSE (all up strokes)

E------------------------------------------------
B--3-3-3-3-3-------------------------------------
G--4-4-4-4-4---5-5---7--5-----------play 2X for intro
D--5-5-5-5-5---5-5---7--5------------------------
A--5-5-5-5-5---3-3-/-5--3------------------------
E--3-3-3-3-3-------------------------------------

   "You've got you hair permed....."



    CHORUS

E----------------------------------------------
A----------------------------------------------
G------------------3-3-3 X-X-X-X-5-5 X---play 4 times
D-5-5-5-5-5-5-5-5--3-3-3 X-X-X-X-5-5 X-----------
A-5-5-5-5-5-5-5-5--1-1-1 X-X-X-X-3-3 X-----------
E-3-3-3-3-3-3-3-3------- X-X-X-X---- X----------- 

  d d d u d u d d  d u d d u d u d d d  
     "OOOOOOOOOH....."

REPEAT VERSE THEN CHORUS END ON:


E--3-----------------------
B--3-----------------------
G--4-----------------------
D--5-----------------------
A--5-----------------------
E--3-----------------------


Anyone who wants to complain or any of that garbage
e-mail me at:                              
*

        anyway thanks,
               Chancellor 

=====
Acordes para:
    Composição: Sublime

    0 comentários

      mostrar mais comentários

      Conseguiu tocar?

      1tocaram0ainda não

      Grave um vídeo tocando 40 Oz To Freedom e mande pra gente!

      00:00 / 00:00
      outros vídeos desta música
      repetirqualidadeautomática
      Outro vídeos desta música
        00:00 / 00:00
        automática
        OK