Cifra Club

All You Need Intro

Sublime

Cifra: Principal
exibições 1.913
Tom: B
ok iv looked this song up a few times and couldnt find an accurate tab so i figured it out myself


-standard tuning-

intro

e---55555555--5--555--5(5)
b---55555555--5--555--5(5)
g---66666666--5h6666--6(6)
d---77777777--5h7777--7(7)
a---77777777--5h7777--7(7)
E---55555555--5- 555--5(5)


then(Part A)
(first time)            (this part you keep repeating)

e----55x5--8-8---66--66--|-55--8-8---66--66---|
b----55x5--8-8---88--66--|-55--8-8---88--66---|
g----66x6--9-9---88--77--|-66--9-9---88--77---|      repeat over and over
d----77x7--1010--88--88--|-77--1010--88--88---|              till
a----77x7--1010--66--88--|-77--1010--66--88---|
E----55x5--8-8-------66--|-55--8-8-------66---|



fill in

e------------------------|
b------------------------|
g------------------------|
d---5-4-3-2-1-0------0-1-|....not positive but it sounds right to me
a----------------2-3-----|
E------------------------|



(Part B)
"headed out for austin..."/"headed out for houston..."

e---555555555555-|
b---555555555555-|
g---666666666666-|  repeat till...
d---777777777777-|
a---777777777777-|
E---555555555555-|


(Part A)
"half pint style..."

e----55x5--8-8---66--66-|-55--8-8---66--66----------|
b----55x5--8-8---88--66-|-55--8-8---88--66----------|
g----66x6--9-9---88--77-|-66--9-9---88--77----------|       repeat over and over
d----77x7--1010--88--88-|-77--1010--88--88----------|
a----77x7--1010--66--88-|-77--1010--66--88----------|
E----55x5--8-8-------66-|-55--8-8-------66----------|


"License for me...."
(Part A except each chord is strummed one at a time)

"Outside on the Pavement..."
(Part B)

"Back out on the highway..."
(Part A except as power chords instead of the whole chord(distorted))

i aint got no solo for you because nows its your turn to teach me...


first tab...let me know if you agree on the accuracy
Cory Crenshaw
G*
Acordes para:

    0 comentários

      mostrar mais comentários

      Conseguiu tocar?

      0tocaram0ainda não

      Grave um vídeo tocando All You Need Intro e mande pra gente!

      00:00 / 00:00
      outros vídeos desta música
      repetirqualidadeautomática
      Outro vídeos desta música
        00:00 / 00:00
        automática
        OK