Cifra Club

Badfish

Sublime

Cifra: Principal
exibições 103.382
Tom: A
Intro 2x: A  Bm  G  A

Riff 1
E|------------------------------------------|
B|--2h3p2-----------------------------------|
G|--------2-----2h4-4-----------------------|
D|----------2h4-----------------------------|
A|------------------------------------------|
E|------------------------------------------|

A                       Bm       G                             A
When you grab a hold of me, you tell me that I'll never be set free

              Bm     G                              A
But I'm a parasite, creep and crawl I step into the night.

             D      G                          A      (Riff 1)
Two pints of booze. Tell me are you a bad fish too? (are you a badfish too?)

D                     A       D                     A
Ain't got no money to spend. I hope the night would never end.

D               A              D                       E
Lord knows I'm weak. Won't somebody get me off of this reef?

A                    Bm    G                                  A
Baby your a big blue whale grab the reef when all duck divin' fails

Riff 2
E|------------------------------------------|
B|-----------------------2h3p2---2h3p2------|
G|-------------------------------------2----|
D|---------------------------------------2--|
A|------------------------------------------|
E|------------------------------------------|

                          Bm            G                         A   (Riff 2)
I swim, but I wish I never learned, the water's too pulluted with germs

                                    D
I dive deep when it's ten feet over head.

Riff 3
E|----------------------5-------------------|
B|------------------5-7---7p5---------------|
G|------------2-4/6-----------6-------------|
D|--------2h4--------------------7/9-7------|
A|--0h2h4-----------------------------------|
E|------------------------------------------|

G                           A    (Riff 3)
grab the reef underneath my bed (underneath my bed)

D                          A    D                        A
Ain't got no quarrels with God, ain't got no time to get old.

D              A               D                       E
Lord knows I'm weak, won't somebody get me off of this reef?

( A  Bm  G  A )

Solo:

       A       Bm    G                       A
E|-------------------------------------------|
B|-------------------------------------------|
G|-4h6-4h6-4b6r4-----2-4-1h2p1---------------|
D|---------------2h4-----------2h4p2---------|
A|-----------------------------------2p0-2h4-|
E|-------------------------------------------|

       A       Bm          G           A
E|---------------------5-------------|
B|-----------------------7-----------|
G|-----------2p1-----------6-4-2-4-2-|
D|---2h4-4-2-----2-2h4---------------|
A|-4---------------------------------|
E|-----------------------------------|

D                          A    D                        A
Ain't got no quarrels with God, ain't got no time to get old
D              A               D                       E
Lord knows I'm weak, won't somebody get me off of this reef?
Acordes para:
    Composição: Brad NowellColaboração e revisão:
    • Frederico Fonseca
    • Renan Luiz

    0 comentários

      mostrar mais comentários

      Conseguiu tocar?

      8tocaram0ainda não

      Grave um vídeo tocando Badfish e mande pra gente!

      00:00 / 00:00
      outros vídeos desta música
      repetirqualidadeautomática
      Outro vídeos desta música
        00:00 / 00:00
        automática
        OK